Oops, an error
Loading. Please wait.

A Single Explosion Bass Tab

198 views 1 this week
no commentswrite comment
1 2 3 4 5
3 more votes to show rating
add to favorites
launch autoscroll
font size
0
reset
guitar tuner
Autoscroll
slow
fast
+/-
esc
set tempo
stop
Help us to improve Ultimate-Guitar.com Take our survey!
×
A Single Explosion
Minus a half step (D# G# C# F#)
Tabbed by Shane Horton (anoceanpearl@gmail.com)

Enter with full band:

|------------------|------------------|------------------|------------------|
|------------------|------------------|------------------|------------------|
|------------------|------------------|------------------|-5-5-5-5--5-5-5-5-|
|-3-3-3-3--3-3-3-3-|-2-2-2-2--2-2-2-2-|-0-0-0-0--0-0-0-0-|------------------|

|------------------|------------------|--------------------------|--------------------------|
|------------------|------------------|--------------------------|--------------------------|
|-3-3-3-3--3-3-3-3-|-2-2-2-2--2-2-2-2-|/12-12-12-12--12-12-12-12-|-12-12-12-12--12-12-12-12-|
|------------------|------------------|--------------------------|--------------------------|

|------------------|------------------|--------------------------|--------------------------|
|------------------|------------------|--------------------------|--------------------------|
|-3-3-3-3--3-3-3-3-|-2-2-2-2--2-2-2-2-|/12-12-12-12--12-12-12-12-|-12-12-12-12--12-12-12----|
|------------------|------------------|--------------------------|-----------------------15/|

|------------------|------------------|------------------|------------------|
|------------------|------------------|------------------|------------------|
|------------------|------------------|------------------|-5-5-5-5--5-5-5-5-|
|-3-3-3-3--3-3-3-3-|-2-2-2-2--2-2-2-2-|-0-0-0-0--0-0-0-0-|------------------|

|------------------|------------------|--------------------------|--------------------------|
|------------------|------------------|--------------------------|--------------------------|
|-3-3-3-3--3-3-3-3-|-2-2-2-2--2-2-2-2-|/12-12-12-12--12-12-12-12-|-12-12-12-12--12-12-12-12-|
|------------------|------------------|--------------------------|--------------------------|

|------------------|------------------|--------------------------|--------------------------|
|------------------|------------------|--------------------------|--------------------------|
|-3-3-3-3--3-3-3-3-|-2-2-2-2--2-2-2-2-|/12-12-12-12--12-12-12-12-|-12-12-12-12--12-12-12----|
|------------------|------------------|--------------------------|-----------------------15/|
Suggest correction
Give kudos to tab author, rate the tab!
1 2 3 4 5
comments
print report bad tab
guest
You may want to rate the tab now too:
select rating
Wanna post a correction for this tab? Suggest correction