Oops, an error
Loading. Please wait.

Avalanche Tab

version 1
version 1

Whole song

5,317 views 3 this week
no commentswrite comment
1 2 3 4 5
please rate
add to favorites
launch autoscroll
font size
0
reset
how to read this tab
guitar tuner
Autoscroll
slow
fast
+/-
esc
set tempo
stop
Help us to improve Ultimate-Guitar.com Take our survey!
×
Matthew Good
Song: Avalanche
Album: Avalanche

Tabbed by Jordan Dekter (and with thanks to Dieter Siperko)
jdekter@aci.on.ca
www.geocities.com/matthewgoodbandtab

tune to 1 flat

play by holding a pick between your thumb and first finger to play lower strings
(D G) when needed, and use your middle finger to play the higher stings
(G B e) when needed etc.
the parts in (x) are an approximation of the secondary guitar.

Intro:

e|-----(0)--------(0)-----------------0--|
B|------1----------1---------1-----------|
G|-(2)-----2---(2)---(2)---0---0--------4| x8
D|--2-----(2)---3-----3-----------3s5----|
A|---------------------------------------|
E|---------------------------------------|

  One foot in front of the other...

at :40

e|-----------------------------------------------|
B|--------------------------0----0-----0-----0---|
G|---0----0-----0------------0----0-----0-----0--|
D|----4----4-----4---4---------------------------| x2
A|--5---5------5----7-7----3----3-----3-----3----|
E|-----------------------------------------------|

Fm        Am                 Fm                     G6
Days like these you’ve got to find it in some other way
Fm          G6       Am
It's all or nothing, baby

after 'way~'
staccato picking

e|--0-0-0--0-0-0--0-0-0--0-0-0---0-0-0--0-0-0--0-0-0--0-0-0-|
B|----------------------------------------------------------|  as needed
G|-2-2-2--4-4-4--5-5-5--7-7-7---2-2-2--4-4-4--5-5-5--7-7-7--|

chorus - 1:44

Am  Fm       C     G
a~  valanche start inside of me

Am  Fm       C    G
a~  valanche down through the trees

2:31

e|--------------------------------------------------------|
B|--1-----1--------------------------1---1----------------|
G|----2--------0--0--0-------------2-------0--0--0--0-----| x2
D|-2-----3--0----------3--3--3------3---0---------------3-|
A|--------------------------------------------------------|
E|--------------------------------------------------------|

2:58

e|-----------------------------------------------|
B|--------------------------0----0-----0-----0---|
G|---0----0-----0------------0----0-----0-----0--|
D|----4----4-----4---4---------------------------| x3
A|--5---5------5----7-7----3-----3------3------3-|
E|-----------------------------------------------|

Am

3:27

play Am, Fm, and G6


3:36
"if everyone..."

something like:

e|--0-0-0-0-0-0-0-0-|--0-0-0-0-----------|--------------0-0-0-0-|--0-0-0-0-0-0-0-0-|
B|-1-1-3-3-5-5-6-6--|-0-0-1-1---0-0-0----|--0-0-0-0-3-3-5-5-----|-1-1-3-3-5-5-6-6--|
G|------------------|------------2-2-0-0-|-0-0-2-2--------------|------------------| x4
D|------------------|--------------------|----------------------|------------------|
A|------------------|--------------------|----------------------|------------------|
E|------------------|--------------------|----------------------|------------------|

(listen for the right times)

the rest Tabbed by Dieter Siperko (Schnitzel_diet@hotmail.com) Bad News Bears:


Intro: Part3

Chorus

Lead at end of chorus:
B|------------5s8--------------5s8---------------5s10-|
G|2--5--4---------5-5--5--4---------4-2--5--7---------|
D|----------------------------------------------------|


Bit before Verse: x8

Ending:

e|----------------------------|---------------------------|---------------------------|---0------0------0------0---|
B|----1------1------1------1--|---1------1------1------1--|---3------3------3------3--|----1------1------1------1--|
G|-----2------2------2------2-|----0------0------0------0-|----0------0------0------0-|----------------------------|
D|-2------2------2------2-----|-2------2------2------2----|---------------------------|-2------2------2------2-----|
A|-0------0------0------0-----|-3------3------3------3----|-2------2------2------2----|-3------3------3------3-----|
E|----------------------------|---------------------------|-3------3------3------3----|----------------------------|

e|----------------------------------------------|-----------------------------------------------|--0--|
B|------1---------1--------1--------------5-----|------1---------1--------1--------------5------|--1--|
G|--2----2----2---------0--0---------------4----|---2----2----2---------0--0---------------4----|--2--|
D|--2----------3----0-------------3s5-----------|--2----------3----0-------------3s5------------|--2--|
A|----------------------------------------------|-----------------------------------------------|--0--|


end on Am


define-

Fm (x03210)
G6 (x05430)
G/D(320033)

-------------------------------

Matthew Good
Song: Avalanche live version

Tabbed by Jordan Dekter
jdekter@aci.on.ca
www.geocities.com/matthewgoodbandtab

this is the fist part of the live version of the song. it's played differently than
the album version.

tune down.

e|---------------------|
B|---------------------|
G|--0---2---4----------| as needed
D|-2-2-3-3-5-5-3s5s3-0-|
A|---------------------|
E|---------------------|

then

e|-----------------------------------------------|
B|--------------------------0----0-----0-----0---|
G|---0----0-----0------------0----0-----0-----0--|
D|----4----4-----4---4---------------------------| as needed
A|--5---5------5----7-7----3----3-----3-----3----|
E|-----------------------------------------------|

play a C

C              Am                                    Fm
Days like these you’ve got to find it in some other way
Fm~slide~G6       Am
It's all or nothing, baby

after 'way~'
staccato picking


chorus

Am  F       C     G
a~  valanche start inside of me

Am  F       C    G
a~  valanche down through the trees

...more to come...
Suggest correction
Give kudos to tab author, rate the tab!
1 2 3 4 5
comments
print report bad tab
guest
You may want to rate the tab now too:
select rating
Please do not post tabs as comments. Select "correction" instead!