Oops, an error
Loading. Please wait.

Buffalo Seven Tab

version 1
version 1

Whole song

683 views 1 this week
no commentswrite comment
1 2 3 4 5
please rate
add to favorites
launch autoscroll
font size
0
reset
how to read this tab
guitar tuner
Tab Pro tools
  • play this tab
  • loop segment
  • change instrument
  • show fretboard
  • metronome
×
Best way to learn
"Buffalo Seven"
Autoscroll
slow
fast
+/-
esc
set tempo
stop
Contributor
Song: Buffalo Seven
Artist: Matthew Good
Album: White Light Rock and Roll Review
Tabbed by Sean Pratt(seanpratt4@hotmail.com)

Tuned down half a step(eb,Bb, Gb, Db, Ab, Eb)


Chords Used:

     F5    A5    C     G     D     Am    C5    E5    G5    D5
e|---x-----x-----0-----3-----2-----0-----x-----x-----x-----x-----|
B|---x-----x-----1-----3-----3-----1-----x-----x-----x-----x-----|
G|---x-----x-----0-----0-----2-----2-----5-----x-----x-----7-----|
D|---3-----7-----2-----0-----0-----2-----5-----2-----5-----7-----|
A|---3-----7-----3-----2-----x-----0-----3-----2-----5-----5-----|
E|---1-----5-----x-----3-----x-----x-----x-----0-----3-----x-----|

Intro

e|---------------------------------------------------------------|
B|----1-0---1-0-------------------------1-0---1-0----------------|
G|-------------------0------0--------------------------0------0--|
D|-----------------0---------------------------------0-----------|
A|--0-----3--------------------3-2----0-----3--------------------|
E|---------------3------2--------------------------3------2------|

Verse
e|-----------------------------------|
B|----1-0---1-0----------------------|
G|-------------------0------0--------|play 6 times
D|-----------------0-----------------|
A|--0-----3--------------------3-2---|
E|---------------3------2------------|

Prechorus:

F5 A5    3x...listen to CD for strumming

Chorus:

C, G, D, Am    2x

then play

Verse 2x then stop for bass, come back in at (1:12) and play verse 2 times
Prechorus 3x
Chorus 3x

Solo Chords:

C5, E5, G5, D5   6x

then play

Prechorus 4x
Chorus   3x
Verse 4x end on A string.
comments
We did not receive enough feedback on this tab! Please rate:
print report bad tab
1 2 3 4 5
I want to post or [tab]
guest
You may want to rate the tab now too:
select rating
Please do not post tabs as comments. Select "correction" instead!