Oops, an error
Loading. Please wait.

Champions Of Nothing Tab

3,992 views 6 this week
no commentswrite comment
1 2 3 4 5
x 4
add to favorites
launch autoscroll
font size
0
reset
how to read this tab
guitar tuner
Autoscroll
slow
fast
+/-
esc
set tempo
stop
Help us to improve Ultimate-Guitar.com Take our survey!
×
Standard Tuning

Chords used:

C - x32010
Em- 022000
Am- x02210
D - x54030

C
When Hollywood runs out of indians
Em
When the bar stars melt and their golden hair turns to glass
C
When Hollywood runs out of indians
Em
When the bubble bursts and first and come for by the last
C
There's something in the way you move
Em
That makes me catch a cold
C
There's something in your 'too cool for school'
Em
When you slide up and down my pole
C
There's something in the way you look
Em
That only casts a shadow
Am                   C
When Hollywood runs out of Indians
Em
Only the Indians will know

C  Em  C  Em

C                   Em
A kick in the head, pass it around
C                   Em
Begging for a bed, pass it around

C  Em  C  Em


C
And I'd say what you'd say but it makes me feel nothing
Em
There's a car waiting to take me to something
C
At the end of my rope, there's a new world, it's snowing
Em
The globe it starts shaking, was it me not worth knowing?
C
The white coats are melting to snow down the mountains
Em
To process the rivers for hallways, and fountains
C
And I'd say what you'd say but it makes me feel nothing
Em
So there's a man waiting to take me to something
Am              C             Em
That I'm 'for', that I'm 'for'

D              Am      Em     D
Hell, it looks red in all it's pictures
   Am                   Em             D
My sister's sing laments while their skin blisters

C           Em
Halleluiahs are for down on the floor
C                      Em
Nobody goes above decks, no not no more
C                                 Em
They say the sun is still shining, that you can feel it in your core
C                           Em
But I ain't seen nobody move that weren't going for the door

C Em C Em

(Solo)

C
And I'd say what you'd say but it makes me feel nothing
Em
There's a car waiting to take me to something
C
At the end of my rope, there's a new world, it's snowing
Em
The globe it starts shaking, was it me not worth knowing?
C
The white coats are melting to snow down the mountains
Em
To process the rivers for hallways, and fountains
C
And I'd say what you'd say but it makes me feel nothing
Em
So there's a man waiting to take me to something
Am              C             Em
That I'm 'for', that I'm 'for'


------------------------


^  -Half bend
^^ - Full bend

e- ----------------------------------------------------------------|
B- ---------------12-------------------12--------------------------|
G- --11p9-11p9-11----11p9-11p9-11p9-11----11p9-11^--9~~------------|
D- ----------------------------------------------------------------|
A- ----------------------------------------------------------------|
E- ----------------------------------------------------------------|

e- ----------------------------------------------------------------|
B- ---------------12-------------------12--------------------------|
G- --11p9-11p9-11----11p9-11p9-11p9-11----11p9-11^--9~~------------|
D- ----------------------------------------------------------------|
A- ----------------------------------------------------------------|
E- ----------------------------------------------------------------|

e- -------------------------------------12--------------------------|
B- --15^^~15^^~12~15^^~~~15^^-12-------12--15p12---12---------------|
G- ------------------------------14^^14^^--------14--14p12---14-12~-|
D- --------------------------------------------------------14-------|
A- -----------------------------------------------------------------|
E- -----------------------------------------------------------------|

e- ----------------------------------------------------------------|
B- ----------------------------------------------------------------|
G- ----------------------------------------------------------------|
D- --14-12----12---------------------------------------------------|
A- --------14----14-12----12---------------------------------------|
E- --------------------15----15-12-10-12---------------------------|

e- ----------------------------------------------------------------|
B- --12-12---12-12------------12-12---12-12------------------------|
G- --12-12---12-12------------12-12---12-12------------------------|
D- -----------------14-12h14-----------------14-12h14-14~~~--------|
A- ----------------------------------------------------------------|
E- ----------------------------------------------------------------|

e- ----------------------------------------------------------------|
B- --------------------------------------------5-7-8-10------------|
G- --------------------------------------------x-x-x-x-------------|
D- --5---9--2----------5---9--2--2-4-5-7-------2-4-5-7-------------|
A- --x---x--2----------x---x--2--x-x-x-x---------------------------|
E- --3---7--0----------3---7--0--0-2-3-5---------------------------|
Suggest correction
comments
print report bad tab
guest
You may want to rate the tab now too:
select rating
Wanna post a correction for this tab? Suggest correction