Oops, an error
Loading. Please wait.

For And Against Tab

82 views 1 this week
no commentswrite comment
1 2 3 4 5
please rate
add to favorites
launch autoscroll
font size
0
reset
how to read this tab
guitar tuner
Autoscroll
slow
fast
+/-
esc
set tempo
stop
Help us to improve Ultimate-Guitar.com Take our survey!
×
Difficulty
Tuning
intermediate
D# G# C# F# A# D#
For and Against:
Half Step Down - E=D#, A=G#, D=C#, G=F#, B=A#, E=D#

Chords used in verse: Am, C(Bar Chord), G
Chords used in chorus: Am, C, Em, F (Bar Chord)
Chords used in bridge: C, G

(Verse)
x1
D# |------------------------3-----3---|
A# |---1----------5-------3--3--3--0--|
F# |--2-2-------5--5----------0-------|
C# |------2---------5-----------------|
G# |0--------3------------------------|
D# |-------------------3--------------|

x3
D# |----------------------------------|
A# |---1----------5---------0----0----|
F# |--2-2-------5--5------0--0--0-0---|
C# |------2---------5---------0-------|
G# |0--------3------------------------|
D# |-------------------3--------------|

Repeat

(Chorus)

Am:
D# |0--------|
A# |1----1---|
F# |2--2--2--|
C# |2------2-|
G# |0--------|
D# |0--------|

C:
D# |0---0----|
A# |1----1---|
F# |0-0---0--|
C# |2--------|
G# |3--------|
D# |0--------|

Em:
D# |0--------|
A# |0--0-0---|
F# |0-0-0----|
C# |2--------|
G# |2--------|
D# |0--------|

F:
D# |1-1--1--1--1--|
A# |1-1--1--1--1--|
F# |2-2--2--2--2--|
C# |3-3--3--3--3--|
G# |3-3--3--3--3--|
D# |1-1--1--1--1--|

(Bridge)

D# |--------------------------3---3----3---|
A# |--1-1-3-0----1-1-3-0----3--3--3--3--3--|
F# |----------------------0-------0--------|
C# |-----------2------------------0--------|
G# |3-----------------------------2--------|
D# |------------------------------3--------|

Repeat twice
comments
We did not receive enough feedback on this tab! Please rate:
print report bad tab
1 2 3 4 5
I want to post or [tab]
guest
You may want to rate the tab now too:
select rating
Please do not post tabs as comments. Select "correction" instead!