Oops, an error
Loading. Please wait.

Im A Window Tab

3,724 views 1 this week
4 commentsread comments
1 2 3 4 5
x 3
add to favorites
launch autoscroll
font size
0
reset
how to read this tab
guitar tuner
Autoscroll
slow
fast
+/-
esc
set tempo
stop
Help us to improve Ultimate-Guitar.com Take our survey!
×
Difficulty
Capo
novice
2nd fret
Here's my tab for Matthew Good's "I'm a Window". Hope you guys/girls like it...comments
I tried to show timing/strumming the best I could...but I'm guessing you're just gonna
to listen to the song to get the strumming right.

tuning 1/2 step down, capo 2nd fret (tab relative to capo)

Intro/ 1st part of the verse:

E--0---0--0-0-0---0---0-0-0--0-0------------|
B--0---0--0-0-0--0h1--1-1-1--1-1------------|
G--0---0--0-0-0---0---0-0-0--0-0------------|  x as many times as you have to
D--2---2--2-2-2---2---2-2-2--2-2------------|
A--2---2--2-2-2---3---3-3-3--3-3------------|
E--0---0--0-0-0---3---3-3-3--3-3------------|

2nd part of the verse:

E--0---0--0-0-0---0---0-0-0--0-0---0---0--0-0-0---0---0-0-0--0-0----|
B--1---1--1-1-1--0h1--1-1-1--1-1---0---0--0-0-0--0h1--1-1-1--1-1----|
G--2---2--2-2-2---0---0-0-0--0-0---0---0--0-0-0---0---0-0-0--0-0----|
D--2---2--2-2-2---2---2-2-2--2-2---2---2--2-2-2---2---2-2-2--2-2----|  x2
A--0---0--0-0-0---3---3-3-3--3-3---2---2--2-2-2---3---3-3-3--3-3----|
E--0---0--0-0-0---3---3-3-3--3-3---0---0--0-0-0---3---3-3-3--3-3----|

Chorus:

E--0--0-0---0--0-0---0--0-0--0-0-0-----------|
B--1--1-1---1--1-1---0--0-0--0-0-0-----------|
G--2--2-2---0--0-0---0--0-0--0-0-0-----------|
D--2--2-2---2--2-2---2--2-2--2-2-2-----------| x as many times as you have to
A--0--0-0---3--3-3---2--2-2--2-2-2-----------|
E--0--0-0---3--3-3---0--0-0--0-0-0-----------|


Then redo the intro...and you got yourself a song! Of course you have to repeat the
and the verses...but I'm guessing you can figure that out. Didn't tab out the bridge...the
away boys, we're gone away, boys..." part...but from what i hear...you just have to play 
"2nd part of the verse" thing over and over...while palm muting...you guys can figure
out. Good luck!
Suggest correction
Give kudos to tab author, rate the tab!
1 2 3 4 5
comments
print report bad tab
4 comments total. Showing first comments.
0 reply
Guitar8000 50 Mar 17, 2008 05:22 PM

Half step down + capo second fret = capo first fret does it not?

0 reply
waterpolo_05 10 Mar 22, 2008 11:31 AM

you are totally right ^...i realized after posting the tab. Capo stays on 2nd fret, its just not half a step down...its standard tuning.

0 reply
Conor_man11 30 Apr 04, 2008 05:09 PM

Nice tab, although you forgot to tab the little outro.

guest
You may want to rate the tab now too:
select rating
Wanna post a correction for this tab? Suggest correction