Oops, an error
Loading. Please wait.

Look Happy Its The End Of The World Tab

448 views 1 this week
no commentswrite comment
1 2 3 4 5
1 last vote to show rating
add to favorites
launch autoscroll
font size
0
reset
how to read this tab
guitar tuner
Autoscroll
slow
fast
+/-
esc
set tempo
stop
Help us to improve Ultimate-Guitar.com Take our survey!
×
Author
Difficulty
novice
/ = slide

for anything i put some Stars after means check for strumming and anything
else
_____________________________________________
00:02a
e-----------------------------|
B-----------------------------|
G-----------------------------|
D-----9--5-------9--5-4-5-----|
A--7----------7------------/2-|
E-----------------------------|

background guitar(00:02b)

e-------------|
b-------------|
g-----5--2--5-|    ************
d--5--5--2--5-|
a--5--3--0--3-|
e--3----------|
_____________________________________________
00:15
e----------------------------------|
b----------------------------------|
g--------2-----5--5-----2--5-----2-| 3Xs *****
d--2--2--2--5--5--5--5--2--5--5--2-|
a--2--2--0--5--3--3--5--0--3--5--0-|
e--0--0-----3--------3--------3----|

00:36
then one more time(00:15) but its played with this over it(2 guitares)
e-------------------------|
b-------------------------|
g-------------------------|        ******
d-------------------------|
a--7--7-5-3--3-2-0--0-----|
e---------------------3-2-|
_____________________________________________
00:47
e-----------|
b-----------|
g--5-----2--|          2xs
d--5--5--2--|
a--3--5--0--|
e-----3-----|
_____________________________________________
00:55
e----------|
b----------|
g--5-----2-|          3xs
d--5--2--2-|
a--3--2--0-|
e-----0----|
01:04
e----------|
b----------|
g-----5----|
d--2--5--5-|           2xs
a--2--3--5-|
e--0-----3-|
_____________________________________________
01:11(00:15)    4xs
01:14
e-----14----------14-------------|
b-----------13----------13-------|
g--12----12----12----12----14^13-|
d--------------------------------|
a--------------------------------|
e--------------------------------|
01:43(00:36)
_____________________________________________
01:54(00:47)      2xs
_____________________________________________
02:01(00:55)      3xs
02:10(01:04)      4xs
_____________________________________________
02:35(00:02a)     4xs
02:47(00:02b)     2xs
_____________________________________________
02:58
e-----------------|
b--12-12-12-13-12-|
g--12-12-12-12-12-|      6xs
d-----------------|
a-----------------|
e-----------------|
03:08
e--15----------|
b-----12-13-12-|
g-----12-12-12-|
d--------------|
a--------------|
e--------------|

and basically mix with those little rips (02:58, and 03:08) to get the right
ending
Suggest correction
Give kudos to tab author, rate the tab!
1 2 3 4 5
comments
print report bad tab
guest
You may want to rate the tab now too:
select rating
Wanna post a correction for this tab? Suggest correction