Oops, an error
Loading. Please wait.

Near Fantastica Tab

678 views 3 this week
no commentswrite comment
1 2 3 4 5
3 more votes to show rating
add to favorites
launch autoscroll
font size
0
reset
how to read this tab
guitar tuner
Autoscroll
slow
fast
+/-
esc
set tempo
stop
Help us to improve Ultimate-Guitar.com Take our survey!
×
Author
Difficulty
intermediate
Matthew Good
Song: Near Fantastica (second guitar only)
Album: Special Internet Release

Tab by Jordan Dekter
garagedoorsafetyisimportant@hotmail.com
http://www.geocities.com/matthewgoodbandtab

Tune down half step.
(the spaces between notes are not meant to indicate accurate scales of time. listen to 
song for correct timing.)

(0:56-1:26)
eb|----------14---------------------------------------------|
Bb|-11s12-12---12-------------------------------------------|
Gb|--------------12-12h14-----------------------------------|
Db|----------------------12h14------------------------------|
Ab|---------------------------12-----------5-7b8-5----------|
Eb|-------------------------------0-0-0-3-5-----------------|

------------------------------------------------------------|
--------------------------------(0)-(0)---------------------|
-9b10b9-7--2-4-4-2---------------4---2------(7)-7-9b10-7----|
------------------4bh5-4s2-2-------------4h5------------5-7-|
----------------------------5-(2)---------------------------|
------------------------------------------------------------|


for "the pink pills......drowning while they're telling him"
some variation of: (repeat and alter as needed)

Bb|-14-15-15-15----14-15-|
Gb|-14-14-14-14-14-14-14-|
Db|-------------16-------|

(for this part there are some very lightly picked notes, that i
have not mentioned. you can listen to find out where these are.)

(2:21-2:55)
eb|---------------------------------------------------------|
Bb|---------------------------------------------------------|
Gb|-7-9b10------7-9-9b10-----9b10--7-9-11-14-14-14-14-14-12-|
Db|---------------------5-7---------------------------------|
Ab|-------9-7-5---------------------------------------------|
Eb|---------------------------------------------------------|

------------------------------------------------------------|
------------------------------------------------------------|
--7-9b10-7-------7--9b10-7--11-11s14-14-14------------------|
-5---------5-7--7----------7--------------------------------|
------------------------------------------------------------|
------------------------------------------------------------|

again:

Bb|-14-15-15-15----14-15-|
Gb|-14-14-14-14-14-14-14-|
Db|-------------16-------|

(3:42-4:44)
eb|---------------------------------------------------------|
Bb|--3-----------------------------------------7h8-10-8-7-5-|
Gb|---0----7-9b10-7--0---(9b10)-2h4--7-9-9b10-7-------------|
Db|----4------------4-4-------------------------------------|
Ab|-5------------------5------------------------------------|
Eb|---------------------------------------------------------|
                    mute and slide
-------------------|---------------|----------5-5-5s7-7-----|
-8h10---8h10-8-----|---------------|----------3-3-3s5-5-----|
-----9--------9-7--|---------------|------5s7---------------|
-------------------|-X-X-X-X-X-X-X-|-5-7--7s9---------------|
-------------------|-X-X-X-X-X-X-X-|------------------------|
-------------------|---------------|------------------------|

slowly and softly
-5s7-14------14--14--14-------------------------------------|
-------12-12---12--12--12-12--------------------------------|
-------------------------------7-7-7-9b10-11~---------------|
------------------------------7-7-7-------------------------|
------------------------------------------------------------|
------------------------------------------------------------|
Suggest correction
Give kudos to tab author, rate the tab!
1 2 3 4 5
comments
print report bad tab
guest
You may want to rate the tab now too:
select rating
Wanna post a correction for this tab? Suggest correction