Oops, an error
Loading. Please wait.

Non Populus solo tab

115 views 3 this week
2 commentsread comments
1 2 3 4 5
x 3
add to favorites
×
Save as Personal and add changes to this tab that will be seen only by you. Learn more ›
×
You can save this tab as Personal to edit and correct it or add notes. All changes will be seen only by you. Learn more »
launch autoscroll
font size
0
reset
how to read this tab
guitar tuner
edit
Autoscroll
slow
fast
+/-
esc
set tempo
stop
Author
Difficulty
------------------------------------------------------------------------------------------------------------
                                          Artist - Matthew Good 
                                         ***********************
                                           Song - Non Populus 
                                          ********************
                                Album - Lights of Endangered Species (2011)    
                               *********************************************
                                           Tabbed By - Ayreon77
                                          **********************
------------------------------------------------------------------------------------------------------------
Tuning = Standard
                                    This Is all the Solos for this track
                                             Done As A request.



02:12
SOLO 1 - Elecrtic Guitar
*******
   pleck                                         
e|-hand------|------h--b-r----------------------|
B|-|-|-------|--h--7-9-9---7----h-------h-----s-|
G|-x-x--6--8-|-6-8-----------6-6-8--8--6-8~~~~\-|
D|-x-x--6--8-|----------------------------------|
A|-----------|----------------------------------|
E|-----------|----------------------------------|

   pleck
e|-hand------|------------------------11-----11----11----11---11--11--11--11--s-|
B|-|-|-------|--h--7------------s--11-----11----11----11----11--11--11--11--11\-|
G|-x-x--6--8-|-6-8----6--6-6-6-6\8----------------------------------------------|
D|-x-x--6--8-|------------------------------------------------------------------|
A|-----------|------------------------------------------------------------------|
E|-----------|------------------------------------------------------------------|


e|------------------------------------------------------------------------------------------|---------------|
B|------------------------------------------------------------------------------------------|---------------|
G|---p--------------------------------------------------------------------------------------|---------------|
D|-11-8---------s-----------s-------s-------s-------s--------------------s-----s-----s------|--h--4-6-----s-|
A|------13-13-13\11-11-11-11\9-9-9-9\8-8-8-8\6-6-6-6\4-4-4-4--4-4-4--4--4\6---4\6---4\6---4-|-4-6-----4-6-\-|
E|------------------------------------------------------------------------------------------|---------------|

02:46
e|-------|--h----|-------------------|
B|--h--7-|-7-9-7-|-----h-------------|
G|-6-8---|-------|-6--6-8--8--6-8~~~-|
D|-------|-------|-------------------|
A|-------|-------|-------------------|
E|-------|-------|-------------------|


--------------------------
03:43
SOLO 2 - Electric Guitar
*******                             s                                                   
e|----14-14-11-|----14-14-11-|----14\16-16-11-|----14-14-11-------------14-14-11-|
B|-------------|-------------|----------------|-------------12----12-------------|
G|-13----------|-13----------|-13-------------|-13-------------13----13----------|
D|-------------|-------------|----------------|----------------------------------|
A|-------------|-------------|----------------|----------------------------------|
E|-------------|-------------|----------------|----------------------------------|
 
        s
e|----14\16-16-11|----14-14-11-------------14-14-11---s|-------------14-14-11---s-|-------------14-14-11---s-|
B|---------------|-------------12----12-------------12\|-------12-12----------12\-|-------12-12----------12\-|
G|-13------------|-13-------------13----13-------------|--------------------------|--------------------------|
D|---------------|-------------------------------------|-13-13--------------------|-13-13--------------------|
A|---------------|-------------------------------------|-11-11--------------------|-11-11--------------------|
E|---------------|-------------------------------------|--------------------------|--------------------------|

                                                                                                    s
e|-------------14-14-11---s-|-------------14-14-11---s-|-----------14-14-11---s-|-----------14----11\-|
B|-------12-12----------12\-|-------12-12----------12\-|-----12-12----------12\-|-----12-12----12-----|
G|--------------------------|--------------------------|------------------------|---------------------|
D|-11-11--------------------|-11-11--------------------|-9-9--------------------|-9-9-----------------|
A|-9--9---------------------|-9--9---------------------|-7-7--------------------|-7-7-----------------|
E|--------------------------|--------------------------|------------------------|---------------------|


04:18
e|--------------------|--------------------|--------------------------------------------------------|
B|--s--------9--------|--s--------9--------|--s-----------s--------------s------------------------s-|
G|-6\8-8-8-8---8-6----|-6\8-8-8-8---8-6----|-9\11-11-11-11\13-13-13-13-13\16-16-16-1616-1515-15-16\-|
D|-----------------10-|-----------------10-|--------------------------------------------------------|
A|--------------------|--------------------|--------------------------------------------------------|
E|--------------------|--------------------|--------------------------------------------------------|


e|--------------------|--------------------|------------------------------------------------|
B|--s--------9--------|--s--------9--------|------------------------------------------------|
G|-6\8-8-8-8---8-6----|-6\8-8-8-8---8-6----|--s------------------------------------------s--|
D|-----------------10-|-----------------10-|-2\4-4-44--66-6--66--9-9-9--9-9--8-8--8--88-8\9-|
A|--------------------|--------------------|------------------------------------------------|
E|--------------------|--------------------|------------------------------------------------|


--------------------------
05:55
SOLO 3 - Acoustic Guitar
*******
e|-----------------------------|---------|---------|---------|---------|--------------------------|-----|
B|-----------------------------|---------|---------|---------|---------|-----------s-------s-s-s--|-----|
G|-----------------------------|---------|---------|---------|---------|--s----4--4\6--6--6\8/6/4-|-4-6-|
D|------s-----s----------------|----s----|---------|----s----|---------|-4\6----------------------|-----|
A|-4-6-6\7-6-6\4-4-0--h--------|---4\7-6-|----h----|---4\7-6-|----h----|--------------------------|-----|
E|-------------------4-7-7-4-7-|-4-------|-4-4-7-7-|-4-------|-4-4-7-7-|--------------------------|-----|


e|-------|-------|---------|---------|
B|-------|-------|---------|---------|
G|-------|-------|---------|---------|
D|--s----|-------|----s----|---------|
A|-4\7-6-|--h----|---4\7-6-|----h----|
E|-------|-4-7-7-|-4-------|-4-4-7-7-|


--------------------------
07:13
SOLO 4 - Electric Guitar
*******
        s                 s                         s                                       s
e|----11\14-14-14-14-12-11\-------s------s--|----11\14-14-14-14-12-11--11-12--11-12-11|-11\14-14-14-14-12-11-|
B|-12-----------------------12--12\14--12\14|-12--------------------------------------|----------------------|
G|------------------------------------------|-----------------------------------------|----------------------|
D|------------------------------------------|-----------------------------------------|----------------------|
A|------------------------------------------|-----------------------------------------|----------------------|
E|------------------------------------------|-----------------------------------------|----------------------|

     s                  s                                             s                 h
e|-11\16-16-14-12--12-12\14-14-14-14-12-11-|---------s-----s------|-12\14-14-14-14-12-11-12-11--11-12-11-|
B|-----------------------------------------|-12-12-12\14-12\14-12-|--------------------------------------|
G|-----------------------------------------|----------------------|--------------------------------------|
D|-----------------------------------------|----------------------|--------------------------------------|
A|-----------------------------------------|----------------------|--------------------------------------|
E|-----------------------------------------|----------------------|--------------------------------------|

        s                      s                  s 
e|-11-11\14-14-14-14-12-11-|-11\16-16-14-12--12-12\14-14-14-14-12-11-|---------s-----s------|
B|-------------------------|-----------------------------------------|-12-12-12\14-12\14-12-|
G|-------------------------|-----------------------------------------|----------------------|
D|-------------------------|-----------------------------------------|----------------------|
A|-------------------------|-----------------------------------------|----------------------|
E|-------------------------|-----------------------------------------|----------------------|

     s                 
e|-12\14-14-14-14-12-11----|
B|----------------------12-|
G|-------------------------|
D|-------------------------|
A|-------------------------|
E|-------------------------|


ENJOY...........
Suggest correction
Creating personal tab
Creating personal tab
You can edit any tab online and save it as your Personal.

You can edit, replace or remove any tab part or add personal notes – all changes will be seen only by you.

Personal tabs can be accessed anytime from any device, even offline.
Learn more »
Give kudos to tab author, rate the tab!
1 2 3 4 5
comments
print report bad tab
2 comments total.
0 reply
DON CZARSKI [tm] 27,892 Jun 28, 2016 03:44 PM

Excellent job as always ayreon77 .... I know the person who requested the solo will be thrilled
To see and use it.

0 reply
ayreon77 21,833 Jun 28, 2016 04:08 PM

yea thx don and thx for the 5 stars too. :)

guest
You may want to rate the tab now too:
select rating
Wanna post a correction for this tab? Suggest correction