Oops, an error
Loading. Please wait.

Poor Mans Grey Tab

332 views 1 this week
no commentswrite comment
1 2 3 4 5
please rate
add to favorites
launch autoscroll
font size
0
reset
how to read this tab
guitar tuner
Tab Pro tools
  • play this tab
  • loop segment
  • change instrument
  • show fretboard
  • metronome
×
Best way to learn
"Poor Mans Grey"
Autoscroll
slow
fast
+/-
esc
set tempo
stop
Contributor
Difficulty
novice
Gtr I (E A D G B E) - 'Poor Man's Gery' by Matthew Good
tabbed by Aaron Falkenberg, 04/07/04

I'm tabbing this from memory so some of the lead sections might be a bit off, but
the rhythm is bang on.  This song can also be played tuned down half a setp, which 
may actually be the case - simply make the appropriate fret changes.

note: This is my first tab so please bear with me. As well, timing here is not spot 
on, so just listen to the song and go with it.

*use mostly the neck pickup

 4/4
  Gtr I
  E E E  E     E   E  E E    E  E E    q  Q
|----------|--------------|---------|--------|
|-9-9-9-11-|-(11)-11-11-6-|-(6)-6-6-|-11--9--|
|-9-9-9-11-|--11--11-11-6-|--6--6-6-|-11--9--|
|----------|--------------|---------|--------|
|----------|--------------|---------|--------|
|----------|--------------|---------|--------|


  e E E E    E  E  E  E   E E E E
|---------|-------------|---------|---|
|-6-9-9-9-|-11-11-11-11-|-6-6-6-6-|---|
|-6-9-9-9-|-11-11-11-11-|-6-6-6-6-|---|
|---------|-------------|---------|---|
|---------|-------------|---------|---|
|---------|-------------|---------|---|


  e  E     E    E  E   E E E  E     E   E  E E
|--------------------|----------|--------------|
|--------------------|-9-9-9-11-|-(11)-11-11-6-|
|-9-11b13-11b13-9----|-9-9-9-11-|--11--11-11-6-|
|-----------------11-|----------|--------------|
|--------------------|----------|--------------|
|--------------------|----------|--------------|


   E  E E  q  Q  e   E E E  E    E  E  E E   E E E
|------------------|----------|------------|----------|
|-(6)-6-6-11--9--6-|-9-9-9-11-|-11-11-11-6-|-6-6-6----|
|--6--6-6-11--9--6-|-9-9-9-11-|-11-11-11-6-|-6-6-6----|
|------------------|----------|------------|----------|
|------------------|----------|------------|----------|
|------------------|----------|------------|----------|


  E  E     E E  E   E E E  E   E   E  E E
|-----------------|-----------------------|
|-----------------|-9-9-9-11-(11)-11-11-6-|
|-9-11b13-11-9----|-9-9-9-11--11--11-11-6-|
|--------------11-|-----------------------|
|-----------------|-----------------------|
|-----------------|-----------------------|


   E  E E  q  Q  e   E E E  E  E  E  E E   E E E
|------------------|---------------------|----------|
|-(6)-6-6-11--9--6-|-9-9-9-11-11-11-11-6-|-6-6-6----|
|--6--6-6-11--9--6-|-9-9-9-11-11-11-11-6-|-6-6-6----|
|------------------|---------------------|----------|
|------------------|---------------------|----------|
|------------------|---------------------|----------|


  E  E     E E  E   E E E    E   E   E  E E  E  E E
|-----------------|-------|-------------------------|
|-----------------|-9-9-9-|-11-(11)-11-11-6-(6)-6-6-|
|-9-11b13-11-9----|-9-9-9-|-11--11--11-11-6--6--6-6-|
|--------------11-|-------|-------------------------|
|-----------------|-------|-------------------------|
|-----------------|-------|-------------------------|


   q  Q  e E E E    E  E  E  E
|----------------|-------------|----|
|-11--9--6-9-9-9-|-11-11-11-11-|----|
|-11--9--6-9-9-9-|-11-11-11-11-|----|
|----------------|-------------|----|
|----------------|-------------|----|
|----------------|-------------|----|


  E
  |
  /

  E E E E E E E E E E E E E E E Q    E E E E E E E E  E E E E E E Q
|----------------------------------|-----------------------------------|
|-6-6-6-x-6-6-6-x-6-6-6-x-6-6-6-4--|-6-6-x-6-6-6-x-6--6-6-x-6-6-6-4----|
|-6-6-6-x-6-6-6-x-6-6-6-x-6-6-6-4--|-6-6-x-6-6-6-x-6--6-6-x-6-6-6-4----|
|----------------------------------|-----------------------------------|
|----------------------------------|-----------------------------------|
|----------------------------------|-----------------------------------|


             ~~                    ~~
   E.  S  E  Q   E  Q    E.  S  E  Q   E  Q
|---------------------|---------------------|
|---------------------|---------------------|
|-13--13-13-11~~11----|-13--13-13-11~~11----|
|------------------11-|------------------11-|
|---------------------|---------------------|
|---------------------|---------------------|


             ~~                              ~~~
   E.  S  E  Q  E   E    Q   E   E   E   E   Q.
|---------------------|-------------------------|----|
|---------------------|---------------------14~~~~~~~|
|-13--13-13-11~11--11-|-10--10--10--10--10------|----|
|---------------------|-------------------------|----|
|---------------------|-------------------------|----|
|---------------------|-------------------------|----|


             ~~                     ~~
   E.  S  E  Q   E  Q     E.  S  E  Q   E  Q
|----------------------|----------------------|
|----------------------|----------------------|
|-13--13-13-11~~11-----|-13--13-13-11~~11-----|
|------------------11--|------------------11--|
|----------------------|----------------------|
|----------------------|----------------------|


             ~~          ~~
   E.  S  E  Q  E   E    Q  E  E  E  E.      +S     Q
|---------------------|--------------------------|-------|
|---------------------|--------------------------|-------|
|-13--13-13-11~11--11-|-10~10-10-10-10b11r(10)---|-------|
|---------------------|--------------------------|-11----|
|---------------------|--------------------------|-------|
|---------------------|--------------------------|-------|


  E. S E  Q   E  E  Q     E  E  E  E  S..  E Q
|----------------------|------------------------|
|----------------------|------------------------|
|----------------------|------------------------|
|-9--9-9-11--11-14-14--|-14-14-14-14-11---11S9--|
|----------------------|------------------------|
|----------------------|------------------------|


  E. S E  Q  E  E   Q   E.        S.   H
|------------------------------------------|
|------------------------------------------|
|------------------------------------------|
|-9--9-9-11-11-14S=13--13b14r(13)--11~~~~~~|
|------------------------------------------|
|------------------------------------------|


             ~~                     ~~
   E.  S  E  Q   E  Q     E.  S  E  Q   E  Q
|----------------------|----------------------|
|----------------------|----------------------|
|-13--13-13-11--11-----|-13--13-13-11--11-----|
|------------------11--|------------------11--|
|----------------------|----------------------|
|----------------------|----------------------|


                       >
             ~~        ~~
   E.  S  E  Q   E  E  W          W
|-------------------------------|---|
|-------------------------------|---|
|-13--13-13-11~~11-11-10~~------|---|
|-------------------------------|---|
|-------------------------------|---|
|-------------------------------|---|


       ~~                    ~~           ~
   e.. H. Q    E      E  S.  H E..    e.. H Q.
|-----------|----------------------|-----------|----|
|-----------|----------------------|-----------|----|
|-11---9~~~~|-11b13r(11)-9---------|-11---9~~~~|----|
|-----------|---------------11~~~~~|-----------|----|
|-----------|----------------------|-----------|----|
|-----------|----------------------|-----------|----|



Repeat from rhythm section above until the song ends.  

comments
We did not receive enough feedback on this tab! Please rate:
print report bad tab
1 2 3 4 5
I want to post or [tab]
guest
You may want to rate the tab now too:
select rating
Please do not post tabs as comments. Select "correction" instead!