Oops, an error
Loading. Please wait.

Us Remains Impossible Bass Tab

version 1
version 1

Whole song

Interactive

411 views 1 this week
no commentswrite comment
1 2 3 4 5
please rate
add to favorites
launch autoscroll
font size
0
reset
guitar tuner
Autoscroll
slow
fast
+/-
esc
set tempo
stop
Help us to improve Ultimate-Guitar.com Take our survey!
×
Author
Difficulty
Tuning
novice
D# G# C# F# A# D#
Pretty easy once you know the song structure.
The A played in the chorus/main verse can also be played on the 6th fret of the D# 
string if you prefer.
I just like the sound of sliding to the 1st fret.
Tuned half step down.


Main riff (starts at 0:28)
F#-------------------------------------------|
C#-------------------------------------------|
G#--888\--10-10-10\--111111111111------------|
D#-------------------------------------------|


Verse:
F#-------------------------------------------------------------------------------------|
C#-----------------------3333-3333-3333-3333-------------------------------------------|
G#--5555-5555-5555-5555-----------------------3333-3333-3333-3333--1111-1111-1111-1111-|
D#-------------------------------------------------------------------------------------|


Prechorus  (1, not 11):
F#--------------------------------------------|
C#--3333-3333-3333-3333-----------------------|
G#-----------------------1111-1111-1111-1111--|
D#--------------------------------------------|


Chorus
F#--------------------------------------------|
C#--------------------------------------------|
G#--5-55\--8-88\--1--11--111------------------|
D#--------------------------------------------|


Solo1:
F#-------------------------------------------------------|
C#-----------------------------------5-7-5-7-5-7-5-7-5-7-|
G#--5555-5555--3333-3333--1111-1111----------------------|
D#-------------------------------------------------------|


Solo2:
F#-------------------------------------------------------------|
C#-----------------------------------5555-5555-5555-5555--8888-|
G#--5555-5555--3333-3333--1111-1111----------------------------|
D#-------------------------------------------------------------|


Outro  (13, not 1,3):
F#-----------------------------------------------|
C#-----------------------------------------------|
G#--555\--888\--13--13-13--13-13-13--------------|
D#-----------------------------------------------|



Main riff x1
Verse     x1
Prechorus x1
Chorus    x2
Main riff x8  (first 2 times are slow, listen to song)
Verse     x1
Prechorus x1
Chorus    x2
Prechorus x1
Chorus    x2
Main riff x2
Solo1     x2
Solo2     x1
Prechorus x1
Chorus    x2
Prechorus x1
Chorus    x4
Outro     x2
Suggest correction
What's this?
You can suggest a correction to this tab. Community and Mods will review your correction and vote to approve or reject it.
comments
We did not receive enough feedback on this tab! Please rate:
print report bad tab
1 2 3 4 5
guest
You may want to rate the tab now too:
select rating
Please do not post tabs as comments. Select "correction" instead!