Oops, an error
Loading. Please wait.

Weapon Tab

version 1
version 1

Whole song

Interactive

33,379 views 45 this week
9 commentsread comments
1 2 3 4 5
x 25
add to favorites
launch autoscroll
font size
0
reset
how to read this tab
guitar tuner
Autoscroll
slow
fast
+/-
esc
set tempo
stop
Help us to improve Ultimate-Guitar.com Take our survey!
×
UGO:
This is a solo track done by Matthew Good, not the Matthew Good Band. 


MATTHEW GOOD 
Song: Weapon
Album: Avalanche


Tuning:
1/2 step down

Intro (Acoustic or electric...doesnt matter much)
------------------------0--------------------------------------------x8
-------3--------0---------------0-------------------------------------
-----0--------0-------0-------0----------0--------0--------0---------0
---4--------4-------4-------4----------4--------4--------4---------4--
-5----------------3------------------2--------2--------2---------2----
-----------------------------------0---------------------------3------


-------------------------0--------------
-------3--------0---------------0-------
-----0--------0-------0-------0---------
---4--------4-------4-------4-----------
-5--------5------5--------3-------------
-----------------------------------0----


-----------------------------------------|
-----------------------------------------|
-----------------------------------------|x2
------------------------------------5~---|
-----5h777-5h7-77------5h777---5h77------|
-0-0------0--------0-0-------0-----------|


(Electric Distorted)
-------------------------------------------------------------------|
-------------------------------------------------------------------|
-------------------------------------------------------------------|x5
--------------------------------------------------5~---------------|
------5h777--5h7-------5h777--5h7------5h777--5h7-------5h777--5h7-|
--0-0------0-------0-0------0------0-0------0-------0-0------0-----|


Chorus (Acoustic)

|-0----00--0--0--|-0---0----0-0-|-0----00--0--0--|-0---0----0-0--|
|-1----11--1--1--|-1---1----1/3-|-0----00--3--0--|-0---0----0-3--|
|-0----00--0--0--|-0---0----0-0-|-0----00--0--0--|-0---0----0-0--|
|-2----22--2--2--|-2---2----2/4-|-2----22--2--2--|-2---2----2-0--|x5
|-3----33--3--3--|-3---3----3/5-|-2----22--2--2--|-2---2----2-2--|
|----------------|--------------|-0----00--0--0--|-0---0----0-3--|

 
|-0---0---00--0--|-0--0-0---0-0-|-0---0---00-0-0-|-0-------------|
|-3---3---33--3--|-3--3-3---3-3-|-1---1---11-1/3-|-0-------------|
|-0---0---00--0--|-0--0-0---0-0-|-0---0---00-0-0-|-0-------------|
|-4---4---44--4--|-4--4-4---4-4-|-2---2---22-2/4-|-2-------------|
|-5---5---55--5--|-5--5-5---5-5-|-3---3---33-3/5-|-2-------------|
|----------------|--------------|----------------|-0-------------|
                                                   again.......

Chorus (Orchestra Tabbed For Guitar)
----------------------------------------------------------------------
----------5---3 ~ ~ --------------5---3 ~ ~ --------------5---3 ~ ~ --
-----0----------------0-------0---------------0-------0---------------
--------------------4---2-------------------4---2---------------------
----------------------------------------------------------------------
--0-------------------------------------------------------------------

----------------------------------------------------------------------
----------------5---3 ~ ~ --------------5---3 ~ ~ --------------------
----0-------0---------------0-------0---------------0-----------------
--4---2-------------------4---2-------------------4---2---------------
----------------------------------------------------------------------
----------------------------------------------------------------------

----------------------------------------------------------------------
----------5---3 ~ ~ --------------5---3 ~ ~ --------------5---3 ~ ~ --
-----0----------------0-------0---------------0-------0---------------
--------------------4---2-------------------4---2---------------------
----------------------------------------------------------------------
----------------------------------------------------------------------

----------------------------------------------------------------------
----------------5---3 ~ ~ --------------5---3 ~ ~ --------------------
----0-------0---------------0-------0---------------0-----------------
--4---2-------------------4---2-------------------4---2---------------
----------------------------------------------------------------------
----------------------------------------------------------------------

----------------------------------------------------------------------
----------5---3 ~ ~ 7 ~ ~ --------------5---3 ~ ~ 7 ~ ~ --------------
-----0----------------------0-------0---------------------------------
--------------------------4---2---------------------------------------
----------------------------------------------------------------------
----------------------------------------------------------------------


Outro (Electric Clean)
------------------------0-----------------------------------------------
-------3--------0---------------0--------------------------------------
-----0--------0-------0-------0--------0--------0--------0-----------0-
---4--------4-------4-------4------------4--------4--------4-------4---
-5--------5-------3-------3----------2--------2--------2---------2-----
-----------------------------------0--------0--------0---------3-------
Suggest correction
comments
print report bad tab
9 comments total. Showing first comments.
+1 reply
ThAD0oD 40 Jan 26, 2003 12:00 AM

kick ass tab :)

+1 reply
Infinite-Reason 150 Mar 18, 2003 12:00 AM

Good tab. I'm still not sure if the heavy part is that easy though...

0 reply
Backup Guitar 310 Jun 28, 2003 12:00 AM

Nice tab...

it would help if you had vocal cues, though. Nice to see another Matt Good fan.

guest
You may want to rate the tab now too:
select rating
Wanna post a correction for this tab? Suggest correction