Oops, an error
Loading. Please wait.

Everything Is Automatic Tab

version 1
version 1

Whole song

  • Whole song including all verses and solo.

Interactive

136 views 15 this week
no commentswrite comment
1 2 3 4 5
2 more votes to show rating
add to favorites
launch autoscroll
font size
0
reset
how to read this tab
guitar tuner
Autoscroll
slow
fast
+/-
esc
set tempo
stop
Help us to improve Ultimate-Guitar.com Take our survey!
×
About this tab version
Whole song including all verses and solo. Was this info helpful? Yes No
Song: Everything Is Automatic
Artist: Matthew Good Band
Album: Underdogs


[Intro] (x4)

E|-------------------------------------------------------------------|
B|-------------------------------------------------------------------|
G|-------------------------------------------------------------------|
D|-------------------------------------------------------------------|
A|-----------5-----5---------5---5------------7--------------5---5---|
E|---7-7-7-7---7-7---7-7-7-7---7---7--5-5-5-5---5-5--3-3-3-3---3---3-|

[Fill 1]

(played over intro starting second time)
E|-------------------------------------------------------------------|
B|-------------------------------------------------------------------|
G|----2-0-2-0-2-2-0-2-0----4-0-4-0-----4-0-4-0-----------------------|
D|--4--------------------2-----------0-------------------------------|
A|-------------------------------------------------------------------|
E|-------------------------------------------------------------------|


[Verse 1]

B5                        A5              G5
I miss my head, I miss my heart, I miss my lungs
B5                                             A5           G5
Be what you want to Be, watch what you want to see, kill for fun

(FILL 1 COMES IN HERE)
B5                      A5                          G5
Down a hole, up a rope, down the sleeping pills, up some hope
B5                                  A5               G5
Got a machine, only takes quarters, new age soldier, new age soldier


[Chorus]

Guitar 2:
E|------------------------------------------------------------------|
B|-5-5-5---5-5-5-----------3-3-3---2-2-2----------------------------|
G|--4-4-4---4-4-4-----------2-2-2---2-2-2---------------------------|
D|------------------------------------------------------------------|
A|------------------------------------------------------------------|
E|------------------------------------------------------------------|
   Everybody\'s alright...
   Everybody\'s alright...
   Everybody\'s alright...
   Everybody\'s alright...


Guitar 1 (power chords):

E                     D
Everybody is alright, everything is automatic
E                     D
Everybody is alright, everything is skin deep
E                     D
Everybody is alright, everything is automatic
E                     D
Everybody is alright, everything is skin deep


[Solo]

E|------------------------------------------------------------------|
B|------------------------------------------------------------------|
G|--12-12-12-12-12-11^-11-11^-11-9-7-12-11-12-11--------------------|
D|------------------------------------------------------------------|
A|------------------------------------------------------------------|
E|------------------------------------------------------------------|

E|------------------------------------------------------------------|
B|----------------------------------------555555--------------------|
G|--12-12-12-12-11^-11-11^-11-9-7-6-4-----333333--------------------|
D|-------------------------------------------------------7----------|
A|-------------------------------------------------------5----------|
E|------------------------------------------------------------------|

Guitar 2 plays power chords:
    E              D             G


[Verse 2]

B5                         A5     G5
Say hey, say hey, say hey, say how you doing
B5                         A5     G5
Say hey, say hey, say hey, say how you doing

(FILL 1 COMES IN HERE)
B5                            A5           G5
I miss my Lazy Boy, I miss my TV, I miss myself
B5                                          A5                  G5
Do you miss your Lazy Boy, do you miss your TV, do you miss yourself


[Chorus]


[Solo]

(top half 4x)
E|------------------------------------------------------------------|
B|------------------------------------------------------------------|
G|--12-12-12-12-12-11^-11-11^-11-9-7-12-11-12-11--------------------|
D|------------------------------------------------------------------|
A|------------------------------------------------------------------|
E|------------------------------------------------------------------|

Guitar 2:
    E              D             G

                                    It\'s always what I
 wanted
                                    It\'s always what I
 wanted
                                    It\'s always what I


E|------------------------------------------------------------------|
B|----------------------------------------555555--------------------|
G|--12-12-12-12-11~-11-11~-11-9-7-6-4-----333333--------------------|
D|-------------------------------------------------------7----------|
A|-------------------------------------------------------5----------|
E|------------------------------------------------------------------|


[Interlude]

E|---------------------------------|
B|---------------------------------|
G|----7-------7-----7-------7------|   etc.
D|------7------7------7-------7----|
A|-5-------5-------5-------5-------|
E|---------------------------------|

Kill for fun, it\'s fuckin funny don\'t you think
One day, you decompose and you wake up and those
Those birds are singing, those birds are singing

E|----------------------------------|
B|---------7---------7--------7-----|
G|-----7---------7---------7--------|
D|---7---7---7-7---7---7-7--7---7---|
A|----------------------------------|
E|----------------------------------|
Those birds are singing

And it\'s always what I...


[Solo]

E|------------------------------------------------------------------|
B|------------------------------------------------------------------|
G|--12-12-12-12-12-11^-11-11^-11-9-7-12-11-12-11--------------------|
D|------------------------------------------------------------------|
A|------------------------------------------------------------------|
E|------------------------------------------------------------------|

   ...wanted

Guitar 2:
    E              D             G

                                    It\'s always what I
 wanted
                                    It\'s always what I

                                    It\'s always what I

                                    Everything is skin deep...

E|------------------------------------------------------------------|
B|------------------------------7-----------------------------------|
G|--12-12-12-12-11~-11-11~-11---7-----------------------------------|
D|------------------------------5-----------------------------------|
A|------------------------------------------------------------------|
E|------------------------------------------------------------------|

Power Chords:
B5 - 799xxx
A5 - 577xxx
G5 - 355xxx
E  - x79900
D  - x57700
G  - 355433



************************************

| ~  Vibrato
| ^  bend

************************************
Suggest correction
Give kudos to tab author, rate the tab!
1 2 3 4 5
comments
print report bad tab
guest
You may want to rate the tab now too:
select rating
Wanna post a correction for this tab? Suggest correction