Oops, an error
Loading. Please wait.

Take Yours Ill Take Mine tab

version 3
version 3

Whole song

  • The song is played with a banjo and there are only... Show more
73 views 1 this week
no commentswrite comment
1 2 3 4 5
3 more votes to show rating
add to favorites
×
Save as Personal and add changes to this tab that will be seen only by you. Learn more ›
×
You can save this tab as Personal to edit and correct it or add notes. All changes will be seen only by you. Learn more »
launch autoscroll
font size
0
reset
how to read this tab
guitar tuner
edit
Autoscroll
slow
fast
+/-
esc
set tempo
stop
About this tab version
The song is played with a banjo and there are only guitar tabs online. So this will be the first tab. Was this info helpful? Yes No
THIS IS TABBED FOR BANJO, JUST LIKE THE SONG.

[Intro]
D|---5-----5-----5-----5------5----5------5-----5-----5------5-----5-----5-----4-----4-----4-----4----|
B|-------3-----------3-----------1------------1-----------3------------3-----------3-----------3------| x2
G|-----------4-----------4-----------0------------0------------4-----------4-----------2-----------2--|
D|-----2-----------2-----------2------------2-----------0------------0-----------0-----------0--------|

[Verse]
     "Take yours....  We'll confide"
D|---5-----5-----5-----5------5----5------5-----5-----5------5-----5-----5-----4-----4-----4-----4----|
B|-------3-----------3-----------1------------1-----------3------------3-----------3-----------3------| x4
G|-----------4-----------4-----------0------------0------------4-----------4-----------2-----------2--|
D|-----2-----------2-----------2------------2-----------0------------0-----------0-----------0--------|

[Pre-Chorus]
    "I'll find mine...  on your side"
D|----------------------------------------------------|
B|---0--0--0--0--1--1--1--1--0--0--0--0--3--3--3--3---| x4(on last time through pluck the 4th chord only once)
G|---0--0--0--0--0--0--0--0--0--0--0--0--4--4--4--4---|
D|---2--2--2--2--2--2--2--2--0--0--0--0--5--5--5--5---|

[Instumental]
D|---5-----5-----5-----5------5----5------5-----5-----5------5-----5-----5-----4-----4-----4-----4----|
B|-------3-----------3-----------1------------1-----------3------------3-----------3-----------3------| x2
G|-----------4-----------4-----------0------------0------------4-----------4-----------2-----------2--|
D|-----2-----------2-----------2------------2-----------0------------0-----------0-----------0--------|

[Verse]
      "Brothers and Sisters...  
D|---------------------------------------------------------------------|
B|-----0---0---0---0---1---1---1---1---0---0---0---0----3---3---3---3--|
G|-----0---0---0---0---0---0---0---0---0---0---0---0----4---4---4---4--|
D|---2---2---2---2---2---2---2---2---0---0---0---0----5---5---5---5----|

                                         we'll confide" *let ring
D|----------------------------------------------------------------|
B|-----0---0---0---0---1---1---1---1---0---0---0---0--3-----------| Whole verse play x2
G|-----0---0---0---0---0---0---0---0---0---0---0---0--4-----------|
D|---2---2---2---2---2---2---2---2---0---0---0---0----5-----------|

[Chorus]
   "And I'll find...  your side"
D|---5-----5-----5-----5------5----5------5-----5-----5------5-----5-----5-----4-----4-----4-----4----|
B|-------3-----------3-----------1------------1-----------3------------3-----------3-----------3------| x4
G|-----------4-----------4-----------0------------0------------4-----------4-----------2-----------2--|
D|-----2-----------2-----------2------------2-----------0------------0-----------0-----------0--------|

[Bridge]
D|----------------------------------------------------|
B|---0--0--0--0--1--1--1--1--0--0--0--0--3--3--3--3---| x4(on last time through pluck the 4th chord only once)
G|---0--0--0--0--0--0--0--0--0--0--0--0--4--4--4--4---|
D|---2--2--2--2--2--2--2--2--0--0--0--0--5--5--5--5---|

[Chorus]
   "And I'll find...  your side"
D|---5-----5-----5-----5------5----5------5-----5-----5------5-----5-----5-----4-----4-----4-----4----|
B|-------3-----------3-----------1------------1-----------3------------3-----------3-----------3------| x4
G|-----------4-----------4-----------0------------0------------4-----------4-----------2-----------2--|
D|-----2-----------2-----------2------------2-----------0------------0-----------0-----------0--------|

            
            
Suggest correction
Creating personal tab
Creating personal tab
You can edit any tab online and save it as your Personal.

You can edit, replace or remove any tab part or add personal notes – all changes will be seen only by you.

Personal tabs can be accessed anytime from any device, even offline.
Learn more »
Give kudos to tab author, rate the tab!
1 2 3 4 5
comments
print report bad tab
guest
You may want to rate the tab now too:
select rating
Wanna post a correction for this tab? Suggest correction