Oops, an error
Loading. Please wait.

Next Thing You Know Tab

version 2
version 2

Whole song

5,069 views 1 this week
no commentswrite comment
1 2 3 4 5
2 more votes to show rating
add to favorites
launch autoscroll
font size
0
reset
how to read this tab
guitar tuner
Autoscroll
slow
fast
+/-
esc
set tempo
stop
Help us to improve Ultimate-Guitar.com Take our survey!
×
Author
Difficulty
novice
Standard Tuning
/ =slide
\ =slide
o=open
e----------------------------------------------------|
b----------------------------------------------------|
g--4/6-66666-6--88888--6--66666--4-------------------|
d--6/8-88888-6--99999--8--88888--4----1--------------|
a------------------------------------1-o-------------|
e-----------------------------------o----------------|
This goes throughout the song.

solo
e----------------------------------------------------|
b----------------------------------------------------|
g----------------------------------------------------|
d--77777--5--88888--7--77777--5--3-------------------|
a----------------------------------------------------|
e----------------------------------------------------|
Suggest correction
Give kudos to tab author, rate the tab!
1 2 3 4 5
comments
print report bad tab
guest
You may want to rate the tab now too:
select rating
Wanna post a correction for this tab? Suggest correction