Oops, an error
Loading. Please wait.

Next Thing You Know Tab

version 4
version 4

Whole song

1,838 views 1 this week
no commentswrite comment
1 2 3 4 5
please rate
add to favorites
launch autoscroll
font size
0
reset
how to read this tab
guitar tuner
Autoscroll
slow
fast
+/-
esc
set tempo
stop
Help us to improve Ultimate-Guitar.com Take our survey!
×
Author
Artist: Matthew West
Song: Next Thing You Know
Album: History

Tabbed by: Twilitezelda

Standard tuning.

|h =Hammer-on
|p =Pull-off
|/ =Slide

This is what both guitars play throughout the whole song. Guitar 1 doesn't play during 
verses, and Guitar 2 gets distortion during all verses, and the "solo".

Guitar 1
e|-----------------|-----------------|-----------------|------------|
B|-3/5--5-5-5-5-5--|-5/7--7-7-7-7-5--|-3/5--5-5-5-5-3--|-3----------|
G|-5/7--7-7-7-7-5--|-7/8--8-8-8-8-7--|-5/7--7-7-7-7-5--|-3----------|
D|-----------------|-----------------|-----------------|-------3p0--|
A|-----------------|-----------------|-----------------|----3h5-----|
E|-----------------|-----------------|-----------------|------------|
                                                            ^
Guitar 2                                                    |
e|------------|------------|------------|--------------    ------------ |
B|------------|------------|------------|--------------    ------------ |
G|-10--10-----|------------|-10--10-----|--------------    ------------ |
D|-10--10--10-|-8---8---10-|-10--10--10-|-8--------3p0-    ------------ |
A|-8---8---10-|-8---8---10-|-8---8---10-|-8-----3h5----   <- these two- |
E|---------8--|-6---6---8--|---------8--|-6---------------------------- |         unison

"Solo" after second verse, before bridge
e|---------------|---------------|--------------|-----------|
B|---------------|---------------|--------------|-----------|
G|-7--7-7-7-7-5--|-8--8-8-8-8-7--|-7-7-7-7-7-5--|-3---------|
D|---------------|---------------|--------------|-----------|
A|---------------|---------------|--------------|-----------|
E|---------------|---------------|--------------|-----------|
Suggest correction
Give kudos to tab author, rate the tab!
1 2 3 4 5
comments
print report bad tab
guest
You may want to rate the tab now too:
select rating
Please do not post tabs as comments. Select "correction" instead!