Oops, an error
Loading. Please wait.

Ill Make A Man Out Of You Tab

79 views 3 this week
no commentswrite comment
1 2 3 4 5
3 more votes to show rating
add to favorites
launch autoscroll
font size
0
reset
how to read this tab
guitar tuner
Autoscroll
slow
fast
+/-
esc
set tempo
stop
Help us to improve Ultimate-Guitar.com Take our survey!
×
Author
Difficulty
novice
E|--0-----------------------------------------0-----------------------------------------------------------|
B|-----0--3-----0--3--------0--1-----3-----------0--3-----0--3--------0--1-----3--3-----------------------|
G|-----------2-----------2--------------2--------------2-----------2-----------------------------------0--|x1
D|--------------------------------------------------------------------------------------0--0--2--2--2-----|
A|--------------------------------------------------------------------------------------------------------|
E|--------------------------------------------------------------------------------------------------------|

E|--------------------------------------------------------------------------------|
B|--------------------------0-----1--0-----------1--0-----------0-----------------|
G|--2-----------------0--2-----------------------------0-----------2-----0-----0--|x1
D|-----4--4--4-----4--------------------0--2-----------------2--------------4-----|
A|--------------------------------------------------------------------------------|
E|--------------------------------------------------------------------------------|
Suggest correction
Give kudos to tab author, rate the tab!
1 2 3 4 5
comments
print report bad tab
guest
You may want to rate the tab now too:
select rating
Wanna post a correction for this tab? Suggest correction