Oops, an error
Loading. Please wait.

My Apology tab

22 views 6 this week
no commentswrite comment
1 2 3 4 5
3 more votes to show rating
add to favorites
×
Save as Personal and add changes to this tab that will be seen only by you. Learn more ›
×
You can save this tab as Personal to edit and correct it or add notes. All changes will be seen only by you. Learn more »
launch autoscroll
font size
0
reset
how to read this tab
guitar tuner
edit
Autoscroll
slow
fast
+/-
esc
set tempo
stop
Author
Difficulty
About this tab version
This tab was submitted by the creator of this song. It is 100% accurate. Was this info helpful? Yes No
[Part 1]
E|--------0--0--------1--------3--|
B|--1--1--1--0--------1--------3--|
G|--0--0--2--1--------2--------4--|
D|--2--2--2--2--------3--------5--|
A|--3--2--0--2--------3--------5--|
E|-----------0--------1--------3--|

I feel alive and I know that im gonna make it
I work without tire and heaven knows ive been patient
I realize the tides have started changing
I feel alive and I know that im gonna make it

[Part 2]
E|--------0--------1--|
B|--1-----0--------1--|
G|--0-----1--------2--|
D|--2-----2--------3--|
A|--3-----2--------3--|
E|--------0--------1--|

Sorry my friends for everytime I said no
Sorry my mother but I may have to go

[Part 1]
E|--------0--0--------1--------3--|
B|--1--1--1--0--------1--------3--|
G|--0--0--2--1--------2--------4--|
D|--2--2--2--2--------3--------5--|
A|--3--2--0--2--------3--------5--|
E|-----------0--------1--------3--|

Im just a kid with a dream in a basement
Knowing I wont grow up til I stop using my imagination
Im just a man with a dream and im gonna chase it
Obsessive I am but at least ill never be complacent

[Part 2]
E|--------0--------1--|
B|--1-----0--------1--|
G|--0-----1--------2--|
D|--2-----2--------3--|
A|--3-----2--------3--|
E|--------0--------1--|

Sorry my friends that I couldn’t hang around more
Sorry my father but I may have to leave this town for

[Part 1]
E|--------0--0--------1--------3--|
B|--1--1--1--0--------1--------3--|
G|--0--0--2--1--------2--------4--|
D|--2--2--2--2--------3--------5--|
A|--3--2--0--2--------3--------5--|
E|-----------0--------1--------3--|

Hope of a life that your son’s always dreamed of where
Ill write you a check for a home with a deck and a lakehouse
And moms off the clock cuz the chef can cook and clean
You’ll offer your best and ill tell you to rest cuz its all on me

[Bridge]
E|--1--------3--|
B|--1--------3--|
G|--2--------4--|
D|--3--------5--|
A|--3--------5--|
E|--1--------3--|

Yea its all on me

[Part 2]
E|--------0--------1--|
B|--1-----0--------1--|
G|--0-----1--------2--|
D|--2-----2--------3--|
A|--3-----2--------3--|
E|--------0--------1--|

Sorry my friends but Im not going out
Sorry my parents but works never slowing down

[Part 1]
E|--------0--0--------1--------3--|
B|--1--1--1--0--------1--------3--|
G|--0--0--2--1--------2--------4--|
D|--2--2--2--2--------3--------5--|
A|--3--2--0--2--------3--------5--|
E|-----------0--------1--------3--|

Cuz im just a kid with a dream in your basement
Been saying my prayers every night knowing they will be taken
I realize the tides have started changing
I feel alive and I know that im gonna make it

[Bridge]
E|--1--------3--|
B|--1--------3--|
G|--2--------4--|
D|--3--------5--|
A|--3--------5--|
E|--1--------3--|

Just be patient with me
Not a failure you’ll see
Just know that one day I may have to leave

[Part 1]
E|--------0--0--------1--------3--|
B|--1--1--1--0--------1--------3--|
G|--0--0--2--1--------2--------4--|
D|--2--2--2--2--------3--------5--|
A|--3--2--0--2--------3--------5--|
E|-----------0--------1--------3--|

In search of a life that we all have once dreamed of
Ill write you a check for a home with a deck and a lakehouse
And moms off the clock cuz the chef can cook and clean
You’ll offer your best and ill tell you to rest cuz its all on me

[Bridge]
E|--1--------3--|
B|--1--------3--|
G|--2--------4--|
D|--3--------5--|
A|--3--------5--|
E|--1--------3--|

Yea its all on me

E|----|
B|--1-|
G|--0-|
D|--2-|
A|--3-|
E|----|

            
            
Suggest correction
Creating personal tab
Creating personal tab
You can edit any tab online and save it as your Personal.

You can edit, replace or remove any tab part or add personal notes – all changes will be seen only by you.

Personal tabs can be accessed anytime from any device, even offline.
Learn more »
Give kudos to tab author, rate the tab!
1 2 3 4 5
comments
print report bad tab
guest
You may want to rate the tab now too:
select rating
Wanna post a correction for this tab? Suggest correction