Oops, an error
Loading. Please wait.

Perahu Kertas Tab

version 1
version 1

Whole song

Interactive

51,020 views 102 this week
no commentswrite comment
1 2 3 4 5
x 10
add to favorites
launch autoscroll
font size
0
reset
how to read this tab
guitar tuner
Autoscroll
slow
fast
+/-
esc
set tempo
stop
Help us to improve Ultimate-Guitar.com Take our survey!
×
Author
Difficulty
intermediate
-----------------------------------------------------------------------------
                          PERAHU KERTAS - Maudy Ayunda
-----------------------------------------------------------------------------

[Intro]

   F                             G
e|---------------------------|---------------------------|
B|------0---1---0-------0---1|------0---1---0-------0---1|
G|----2-------------2--------|----0-------------2--------|
D|--3-----3---3---3---3---3--|--0-----0---0---0---0---0--|
A|---------------------------|---------------------------|
E|1--------------------------|3--------------------------|

  F                             G                     Am
e|---------------------------|-----------------------|----------0-5-7-5~|
B|------0---1---0-------0---1|------0---1-----0------|------0-1-------5~|
G|----2-------------2--------|----0---------------0--|----2-----------5~|
D|--3-----3---3---3---3---3--|--0-----0---0-----0---0|--2---------------|
A|---------------------------|-----------------------|0---------------0~|
E|1--------------------------|3----------------------|------------------|


[Verse 1]
                       F          E                     Am
e|-------------------------3---1-|----1---0------------|----0---0---0--|
B|-------------------------1---1-|----0---0------------|----1---1---1--|
G|-----------------------2---2---|--1---1--------------|--2---2---2---2|
D|-------------------------------|---------------------|---------------|
A|-------------------------------|---------------------|0--------------|
E|---------------------1---------|0--------------------|---------------|
  Perahu kertas ku kan me....laju   Membawa surat cinta ba....gimu

  G                    Dm          E               Am
e|--------------------|----1---1--|1---0--------|----------------5~|
B|----0---0-----------|----3---3--|-----------0-|3-------1-------5~|
G|----0---0-----------|--2---2----|--1---1--3---|----2-------2---5~|
D|--0---0-------------|0----------|-------------|--2---2---2---2---|
A|--------------------|-----------|-------------|0---------------0~|
E|3-------------------|-----------|0------------|------------------|
    Kata-kata yg sedi..kit   gila  Ta..pi  ini  a.....danya


[Verse 2]

                       F          E                     Am
e|-------------------------3---1--|----1---0------------|----0---0---0--|
B|-------------------------1---1--|----0---0------------|----1---1---1--|
G|-----------------------2---2----|--1---1--------------|--2---2---2---2|
D|--------------------------------|---------------------|---------------|
A|--------------------------------|---------------------|0--------------|
E|---------------------1----------|0--------------------|---------------|
  Perahu kertas mengingat....kanku   Betapa ajaib  hi....dup   ini

  G                     Dm               E             Am  
e|---------------------|----1---1---1---|1---0--------|----------------|
B|----0----0----0------|----3---3---3---|----------0--|3-------1-------|
G|----0----0----0------|--2---2---2-----|--1---1-3----|----2-------2---|
D|--0----0----0--------|0---------------|-------------|--2---2---2---2-|
A|---------------------|----------------|-------------|0---------------|
E|3--------------------|----------------|0------------|----------------|
    Mencari-cari tamba..tan   hati   Kau sa..ha..batku sen...diri

    G
e|-------------------------|
B|--3-----------------3----|
G|---------0----2----------|
D|------0-----0----0-----0-|
A|-------------------------|
E|--3----------------------|
  Hidupkan lagi mimpi-mimpi  


[Bridge]

  F                           G                                    
e|------1-------------1------|------3-------------3------|
B|----1-----1-------1-----1--|----0-----0-------0-----0--|
G|--2-----2---2---2-----2---2|--0-----0---0---0-----0---0|
D|---------------------------|---------------------------|
A|---------------------------|---------------------------|
E|1-------------1------------|3-------------3------------|
 (Cinta-cinta)  Cita-cita    (Cinta-cinta)        Yang la-

  Am                          Am                                    
e|------0-------------0------|------0--------------0----|
B|----1-----1-------1-----1--|----1-----1----------1----|
G|--2-----2---2---2-----2---2|--2-----2---2-----2-----2-|
D|---------------------------|--------------------------|
A|0-------------0------------|0-------------0-----------|
E|---------------------------|--------------------------|
  ma    ku  pendam    sendi...ri                   Berdu-  

  F                           G                                    
e|------1-------------1------|------3-------------3------|--------1-------0~|
B|----1-----1-------1-----1--|----0-----0-------0-----0--|----1---1---2---1~|
G|--2-----2---2---2-----2---2|--0-----0---0---0-----0---0|--0---0---0---0-0~|
D|---------------------------|---------------------------|------------------|
A|---------------------------|---------------------------|3---------------3~|
E|1-------------1------------|3-------------3------------|------------------|
  a...                ku bi...sa            per.......ca..ya...


[Reff]

  F                           G                                    
e|---------1-------------1------|------3-------------3------|
B|-------1-----1-------1-----1--|----0-----0-------0-----0--|
G|-----2-----2---2---2-----2---2|--0-----0---0---0-----0---0|
D|------------------------------|---------------------------|
A|------------------------------|---------------------------|
E|---1-------------1------------|3-------------3------------|
  Ku ba......ha....gia               Ku telah  terlahir di 

  C             G/B           Am                                    
e|------0------|------3------|------0--------------0----|
B|----1-----1--|----0-----0--|----1-----1----------1----|
G|--0-----0---0|--0-----0---0|--2-----2---2-----2-----2-|
D|-------------|-------------|--------------------------|
A|3------------|2------------|0-------------0-----------|
E|-------------|-------------|--------------------------|
  du......ni....a                                  Dan

  F                           G                                    
e|------1-------------1------|------3-------------3------|
B|----1-----1-------1-----1--|----0-----0-------0-----0--|
G|--2-----2---2---2-----2---2|--0-----0---0---0-----0---0|
D|---------------------------|---------------------------|
A|---------------------------|---------------------------|
E|1-------------1------------|3-------------3------------|
  kau      a....da                Dian..tara   milya..ran 

  C             G/B           Am                                    
e|------0------|------3------|------0--------------0----|
B|----1-----1--|----0-----0--|----1-----1----------1----|
G|--0-----0---0|--0-----0---0|--2-----2---2-----2-----2-|
D|-------------|-------------|--------------------------|
A|3------------|2------------|0-------------0-----------|
E|-------------|-------------|--------------------------|
  ma......nu....sia       Dan ku        bi..sa     dengan

    F                           G                         C             
e|------1-------------1------|------3-------------3------|--------1-------0~|
B|----1-----1-------1-----1--|----0-----0-------0-----0--|----1---1---2---1~|
G|--2-----2---2---2-----2---2|--0-----0---0---0-----0---0|--0---0---0---0-0~|
D|---------------------------|---------------------------|------------------|
A|---------------------------|---------------------------|3---------------3~|
E|1-------------1------------|3-------------3------------|------------------|
  ra....darku             Me..ne....mukan...mu  


[Coda]

  F                               G
e|------1-------1-------1-------1|------3-------3-------3-------3|
B|----1-------1-------1-------1--|----0-------0-------0-------0--|
G|--2-------2-------2-------2----|--0-------0-------0-------0----|
D|-------------------------------|-------------------------------|
A|-------------------------------|-------------------------------|
E|1-------1-------1-------1------|3-------3-------3-------3------|
                        Huu..uuu..uuu...                Ooo..ooo..

  Am                               Am         
e|------0-------0-------0-------0|--------0-0-5-7-8~~8-|
B|----1-------1-------1-------1--|------1---------5~~5-|
G|--2-------2-------2-------2----|----2-----------5~~5-|
D|-------------------------------|--2------------------|
A|0-------0-------0-------0------|0---------------0~~--|
E|-------------------------------|---------------------|
  ooh...

  F                               G
e|--------1-------1-------1-------1|------3-------3-------3-------3|
B|------1-------1-------1-------1--|----0-------0-------0-------0--|
G|----2-------2-------2-------2----|--0-------0-------0-------0----|
D|---------------------------------|-------------------------------|
A|---------------------------------|-------------------------------|
E|--1-------1-------1-------1------|3-------3-------3-------3------|
  Tia.....da    la..gi    yang mam..pu      berdi...ri      hala-

  Am                               Am
e|------0-------0-------0-------0|------0-------0-0-----|
B|----1-------1-------1-------1--|----1-------1---1----1|
G|--2-------2-------2-------2----|--2-------2-----2--2--|
D|-------------------------------|----------------------|
A|0-------0-------0-------0------|0-------0-------0-----|
E|-------------------------------|----------------------|
  ngi     rasa....ku      cinta...ku      pada....mu   Ku-


[Reff] (again)

  F                           G                                    
e|------1-------------1------|------3-------------3------|
B|----1-----1-------1-----1--|----0-----0-------0-----0--|
G|--2-----2---2---2-----2---2|--0-----0---0---0-----0---0|
D|---------------------------|---------------------------|
A|---------------------------|---------------------------|
E|1-------------1------------|3-------------3------------|
  ba......ha....gia               Ku telah  terlahir di 

  C             G/B           Am                                    
e|------0------|------3------|------0--------------0----|
B|----1-----1--|----0-----0--|----1-----1----------1----|
G|--0-----0---0|--0-----0---0|--2-----2---2-----2-----2-|
D|-------------|-------------|--------------------------|
A|3------------|2------------|0-------------0-----------|
E|-------------|-------------|--------------------------|
  du......ni....a                                  Dan

  F                           G                                    
e|------1-------------1------|------3-------------3------|
B|----1-----1-------1-----1--|----0-----0-------0-----0--|
G|--2-----2---2---2-----2---2|--0-----0---0---0-----0---0|
D|---------------------------|---------------------------|
A|---------------------------|---------------------------|
E|1-------------1------------|3-------------3------------|
  kau      a....da                Dian..tara   milya..ran 

  C             G/B           Am                                    
e|------0------|------3------|------0--------------0----|
B|----1-----1--|----0-----0--|----1-----1----------1----|
G|--0-----0---0|--0-----0---0|--2-----2---2-----2-----2-|
D|-------------|-------------|--------------------------|
A|3------------|2------------|0-------------0-----------|
E|-------------|-------------|--------------------------|
  ma......nu....sia       Dan ku        bi..sa     dengan

    F                           G                               
e|------1-------------1------|------3-------------3------|
B|----1-----1-------1-----1--|----0-----0-------0-----0--|
G|--2-----2---2---2-----2---2|--0-----0---0---0-----0---0|
D|---------------------------|---------------------------|
A|---------------------------|---------------------------|
E|1-------------1------------|3-------------3------------|
  ra....darku             Me..ne....mukan...mu

(back to reff again 1x)


[Outro]

  F-----G----C                               C
e|----3|----|------------3---3--7--3--7--8~|-0-|
B|--1--|3---|------5---5---5-------------8~|-1-|
G|2----|--5-|----5---5-------------------9~|-0-|
D|-----|----|--5---------------------------|-2-|
A|-----|----|3-----------------------------|-3-|
E|1----|3---|------------------------------|---|


************************************

| ~  Vibrato

************************************
Suggest correction
comments
print report bad tab
guest
You may want to rate the tab now too:
select rating
Wanna post a correction for this tab? Suggest correction