Oops, an error
Loading. Please wait.

Tiba-Tiba Cinta Datang intro tab

1,332 views 3 this week
2 commentsread comments
1 2 3 4 5
3 more votes to show rating
add to favorites
×
Save as Personal and add changes to this tab that will be seen only by you. Learn more ›
×
You can save this tab as Personal to edit and correct it or add notes. All changes will be seen only by you. Learn more »
launch autoscroll
font size
0
reset
how to read this tab
guitar tuner
edit
Autoscroll
slow
fast
+/-
esc
set tempo
stop
Author
Difficulty
E|---1-4-6----------6-6-7-------------------------------|
B|--2-------3-2--0-------7--5-5-7-8-8-7-5-7-8-10--------|
G|----------------3-------------------------------------|
D|------------------------------------------------------|
A|------------------------------------------------------|
E|------------------------------------------------------|

E|---1-4-6------------6-6-7-----------------------------|
B|--2-------3-2--0---------7---5-5-5-7-8-8-7-5-5-3-3----|
G|-----------------3------------------------------------|
D|------------------------------------------------------|
A|------------------------------------------------------|
E|------------------------------------------------------|

This is my first tab! hope you like it!:)
if you dont know maudy ayunda i can tell you. Maudy Ayunda is an actress from Indonesia, 
she play some movies and she has an album named "Panggil Aku... Maudy Ayunda"

            
            
Suggest correction
Creating personal tab
Creating personal tab
You can edit any tab online and save it as your Personal.

You can edit, replace or remove any tab part or add personal notes – all changes will be seen only by you.

Personal tabs can be accessed anytime from any device, even offline.
Learn more »
Give kudos to tab author, rate the tab!
1 2 3 4 5
comments
print report bad tab
2 comments total.
0 reply
Ithuenk_26 10 Nov 17, 2011 02:03 PM

Great :D
I like maudy ayunda

0 reply
febbya97 48 Jan 03, 2012 10:45 PM

yeah i like too! she's awesome ;)

guest
You may want to rate the tab now too:
select rating
Wanna post a correction for this tab? Suggest correction