Oops, an error
Loading. Please wait.

De Noche Tab

16 views 1 this week
no commentswrite comment
1 2 3 4 5
3 more votes to show rating
add to favorites
launch autoscroll
font size
0
reset
how to read this tab
guitar tuner
Autoscroll
slow
fast
+/-
esc
set tempo
stop
Help us to improve Ultimate-Guitar.com Take our survey!
×
Que tal fanáticos de la buena trova, esta es mi primera
participación, una pequeña canción de un cuate que
toca chido, ahora, deben ser atentos así se darán
cuenta de que los acordes son de los más conocidos,
solo con algunas variantes, por eso los nombré
diferentes pero no se espanten, bueno espero que
les guste, esta sencillita...


Intro:

e|-------0-----5-----0-----------0--------5--|
b|-----3-----3-----3-----3-----3-----3---3---|
g|---4-----4-----4-----4-----4-----4----4----|
d|-------------------------------------0-----|
a|-------------------------------------------|
E|-3-----3-----3-----3-----3-----3-----------|

  G*1                Em7            Adim7 
A veces me quedo sentado en la noche
 Em7*                  G
tratando de allarme en lo que me escribes
   C7                   G/B
deseando saber si es la misma persona
    A7                      D9              Riff_1
la que hay en tus cartas y la que hay en ti


  G*1         G*2        Em7         Adim7 
A veces quisiera morder la manzana
    Em7*                G
que forman tus labios rodeando a la luna
   C7                G/B
saber como teje la araña su tela
     A7                D9          Riff_1
y hacer una para alcanzar tu pared

   Adim7                    Em7*    G          A7*   D9   Riff_1
A veces me pierdo en lo obscuro sin horas de sueño


    G*1       G*2    Adimm7 
De noche me dice callada la puerta
       Em7*                G
que a veces te vales de alguna salida
   C7                  G/B
y luego me lovidas con el equipaje
   A7                D9          Riff_1
dejando amarrada mi sombra veloz
   G      Gsus4
A veces te beso tocando la nada
    Em                      Em D G/B C D/F#m G C7                   G/B
armando palabras que nunca te mando
  A7                   D9           Riff_1
y que se amontonan poblando un buró

   Adim7              Em7*                   A7*      D9  Riff_1
A veces me pierdo la noche intentando encontrarte

  G*1      G*2      |x|
A veces me quedo soñando contigo
           A7*   C(rasgueo)        G  C  A7  D
y solo consigo...   quedarme dor...mido
                                  /
Outro:                           /
       _ _ _ _ _ _ _ _ _ _ _ _ _/
      /
     /
    G                      C                      A7
e|-------3-----3-----3----------3-----3-----3-----------3-----3----
b|-----0-----0-----0-----0----1-----1-----1-----1-----2-----2-----2
g|---0-----0-----0-----0----0-----0-----0-----0-----0-----0-----0--
d|-------0-----------0----------2-----------2-----2-----------2----
a|-------------------------3----------3-----------------0----------
E|-3-----------3---------------------------------------------------

     D
e|-3-----------2--------10----|
b|-----2-----3-----3---10-----|
g|---0-----2-----2----11------|
d|-------0-----------0--------|
a|-0-----------------------0--|
E|---------------------------0|

    Riff_1

    e|---2h3p2-----|
    b|--------3--3-|
    g|---------2---|
    d|-------------|
    a|-------------|
    E|-------------|


Acordes:

        E A D G B E G*1     3 0 0 4 3 0
G*2     3 0 0 4 3 5
Em7     0 2 2 0 3 0
Em7*    0 2 2 0 0 3
C7      0 3 2 0 3 0
G/B     x 2 0 0 3 x 
A7      0 0 2 0 2 x 
A7*     0 0 2 0 5 3
D9      0 0 0 2 3 0
Adim7+  x 6 x 0 7 7 
Adim7   0 0 1 2 1 2
Gsus4   3 2 0 0 1 0
|X|     x 4 x 0 5 6 G       3 2 0 0 0 3

Si tienen alguna duda, sugerencia o alguna otra tablatura
del 'Hueso' corranla nos sean amarrados, son bien escasas,
 mi mail es 
bueno, que la disfruten...
Suggest correction
Give kudos to tab author, rate the tab!
1 2 3 4 5
comments
print report bad tab
guest
You may want to rate the tab now too:
select rating
Wanna post a correction for this tab? Suggest correction