Oops, an error
Loading. Please wait.

Amor Carretiao Chords

10 views 1 this week
no commentswrite comment
1 2 3 4 5
3 more votes to show rating
add to favorites
launch autoscroll
font size
0
reset
transpose
0
reset
display chords
guitar tuner
×
Best way to learn
"Amor Carretiao"
Autoscroll
slow
fast
+/-
esc
set tempo
stop
Intro (Dm - C):
|-5-------5-------5-------5-6-3---------3-----3---|
|---6---6---6---6---6---6-------5---5-----5----5--|
|-----7-------7-------7-----------5---5-----5-----|
|-------------------------------------------------|
|-------------------------------------------------|
|-------------------------------------------------|

Hay que restarle 22 segundos olle
un saludo pa Juanito Alfaro allá en quellón
de parte e' amor carreteao

Dm               C
ay, ay amor carreteao
ay, ay amor carreteao
ay, ay amor carreteao

     F        C
volveré a sufrir
volveré a sentir
volveré a sufrir
               Dm
a mi amor carreteao

A#            F
tan solo mi corazon
tan solo mi corazon son son son de melón
tan solo mi corazon

puente:
Dm
//:
|---5-----5---3-----|
|-------6-----------|
|-7---7-----5---3-2-|
|-------------------|
|-------------------|
|-------------------|
://

sin mi amor carreteao
sin mi amor carreteao

(luego se repite el riff del intro)

y un saludo a la mesa 53
y a la 69 también

(aqui no estoy seguro que dice)
Dm               C
ay, gavarivi yungunga
ay, gavarivi yungunga
ay, gavarivi yungunga

    F      C
gavare mehuelle
gavare mehuelle
gavare mehuelle
gavarimi barniva

A#                  F
So lonely my little heart
So lonely my little heart heart heart
So lonely my little heart

(Se repite el puente)
sin mi amor carreteao
sin mi amor carreteao

(Intro)

ay, ay amor carretao
ay, ay amor carretao
ay, ay amor carretao

volveré a sufrir
volveré a sentir
volveré a sufrir
a mi amor carreteao

tan solo mi corazon
tan solo mi corazon son son son de melón
so lonely my little heart
Suggest correction
Give kudos to tab author, rate the tab!
1 2 3 4 5
comments
print report bad tab
guest
You may want to rate the tab now too:
select rating
Wanna post a correction for this tab? Suggest correction