Oops, an error
Loading. Please wait.
7 views 1 this week
no commentswrite comment
1 2 3 4 5
3 more votes to show rating
add to favorites
launch autoscroll
font size
0
reset
transpose
0
reset
display chords
guitar tuner
×
Best way to learn
"Viernes"
Autoscroll
slow
fast
+/-
esc
set tempo
stop
De nuevo yo Camilo Velez...

Bueno esta es del Nuevo Album de Mauricio y Palodeagua
es muy buena se las recomiendo... y en especial se la
dedico a mi Hermoxa...


e|------------------------------------------------|
B|------------------------------------------------|
G|-------------------------0-0-------------2-2----|
D|---------0-0---------1-1-----1---0-0-4-4-----4-0|
A|-----1-1-----1---3-3-----------3----------------|
E|-3-3-----------3--------------------------------|


e|-----------------|
B|---------3-3-----|
G|-0-0-3-3-----3-0-|
D|-----------------|
A|-----------------|
E|-----------------|


DOS VECES EL INTRo sin acompañamiento luego otras
dos veces acompañado:::

      G            Cm
Se acaba el fin de semana
      D           G
la parranda ya termino
      G           Cm
domingo salida al parque
      D           G
guayabo y resurreccion
     G            Cm
llega el lunes con la nostalgia
      D           G
dia gris y de soledad
     G            Cm
soñamdo con que termine
      D           G
la semana pa festejar


cORo
     G            Cm
viernes yo quiero viernes
      D           G
quiero viernes pa parrandear
     G            Cm
viernes yo quiero viernes
      D           G
quiero viernes pa ir a rumbear
     G            Cm
friday yo quiero friday
      D           G
quiero friday pa ir a rumbear
     G            Cm
friday yo quiero friday
      D           G
quiero friday pa cha cha cha
G    G   G
cha cha cha...


No quiero martes de movies
tampoco un date de cafe no no
ni miercoles happy hour
ni jueves de ir a comer... que mamera
no hay ladies night que remplace
el party que hay que formar
tan solo quiero que llegue
ese viernes pa ir a rumbear...

cORo

cha cha cha

no quiero mas dias
no quiero ir a estudiar
ni lunes
ni martes
se hicieron pa bailar
este es mi ritmo
parece cha cha cha
no es rumba ni es mambo
E boogaloo ska


e|----------------8-8-8-11--8-10--100-----8-8-8--6-6--|
B|----118/11---8-----------------------11-------------|
G|-----------------------------------------------------|    X2
D|-----------------------------------------------------|
A|-----------------------------------------------------|
E|-----------------------------------------------------|

cORo2

ya llegó
viernes de parranda y boogaloo
la fiesta ya va a empezar
otra vez
me voy a bailar mi boogaloo
ya el party se va a formar

cORo3

viernes yo quiero viernes
viernes boogaloo...oeoaaaaa
friday yo quiero friday
viernes boogaloo...oeoeeee...oeoaaaa
no hay ladies night que remplace
el party que hay que formar
tan solo quiero que llegue
ese viernes pa ir a rumbear...

CORO...

BUENO SI NECESITAN BUEN GUITARRISTA EN BOGOTÁ... 3125491708....
cAMILo vELEz...
Suggest correction
Give kudos to tab author, rate the tab!
1 2 3 4 5
comments
print report bad tab
guest
You may want to rate the tab now too:
select rating
Wanna post a correction for this tab? Suggest correction