Oops, an error
Loading. Please wait.

Rossiniana No 1 Op 119 tab

67 views 9 this week
no commentswrite comment
1 2 3 4 5
2 more votes to show rating
add to favorites
×
Save as Personal and add changes to this tab that will be seen only by you. Learn more ›
×
You can save this tab as Personal to edit and correct it or add notes. All changes will be seen only by you. Learn more »
launch autoscroll
font size
0
reset
how to read this tab
guitar tuner
edit
Autoscroll
slow
fast
+/-
esc
set tempo
stop
About this tab version
Here is the tab for Giuliani's Rossiniana no.1 transcribed from the sheet music by Maxime Bergeron. Was this info helpful? Yes No
[I. Andantino]
1   Q    E.  S    E.  T  T E.  S    S. T T T S S T T S T T    Q    Q
e|--3----3---3-|--3---5p-3-2---0-|-------------------2-5---|--3---------|
B|--0----0-----|--1--------------|--4--0-2-0-----4---------|--0---------|
G|--0----0-----|--2--------------|--4--2-----3-4-----------|------------|
D|-------------|-----------------|--4--1-------------------|------------|
A|-------------|--0--------------|--2--2-------------------|------------|
E|--0----0-----|-----------------|-----2-------------------|--0---------|

                                      |-----6----|
  5 Q      E.  S    Q    Q       Q    S S S S  S S    Q    Q       Q    E.  S
e|---------------|------------|--0--------0-3p-2-0-|------------|--3----3---3-|
B|--0----3g1---0-|--0----0----|--0------4----------|--4---------|--0----0-----|
G|--0------------|------------|-------3------------|--4---------|--0----0-----|
D|--2------------|--4----3----|--2----2------------|------------|-------------|
A|---------------|--6----5----|--4----4------------|--2---------|-------------|
E|---------------|------------|--------------------|------------|--0----0-----|

  10 E.  T  T E.  S    E.  S E.  S    Q    E.  S    Q    E  S S
e|---3---5p-3-2---0-|--------------|-------------|--0-------L---|
B|---1--------------|--3---5-3---1-|--0----------|------------4-|
G|---2--------------|--5-----5-----|--0--------0-|--------------|
D|------------------|--4-----4-----|--0----------|-------4------|
A|---0--------------|--0-----0-----|-------------|-------3------|
E|------------------|--------------|--3----------|--------------|

           |-----6-----|         |--3--|
  14 E.  S S S  S S  S S    Q    E  E  E     Q    Q       S S S S S S S S
e|-------3---------------|----------------|------------|------------------|
B|---3-----------------1-|--0-------------|------------|--0-------0-------|
G|---0------------1h-2---|--0----4--2--0--|--0---------|--0-------0-------|
D|-----------1h-2--------|--0----4--------|--0---------|--------------2-0-|
A|---2-----3-------------|-------5--------|--2---------|--------0-2-------|
E|-----------------------|----------------|--3---------|--3-2-3-----3-----|

  18 E  E  E  E     S S S S S S S S    E  E  E  E     S S S S S S S S
e|---------------|------------------|--------------|----3---0---3---0-|
B|---------------|--1-------1-------|-----1--0-----|------4-------4---|
G|------3--2-----|--2-------2-------|-----2--1-----|--0-------0-------|
D|------5--4-----|--------------4-2-|--1-----2-----|------------------|
A|---4-----5-----|--0---0-2-3-0-----|--------------|--3-------3-------|
E|---------------|----4-------------|--------------|------------------|

  22 S S S  S S S S  S    S  S S S S S S S    S S S S S S S S    S S S S S S S S
e|-----3--------3------|-------------------|----------0-------|------------------|
B|-------2h-3-----2h-3-|--3p-2-0-2-2-5-3-2-|--2-0---0---3-2-0-|------------------|
G|---0--------0--------|-------------------|------3-----------|----2-2-2---3-3-3-|
D|---------------------|--2--------0-------|--0---------------|----2-2-2---2-2-2-|
A|---2--------2--------|--0----------------|--------------0-2-|--3-------3-------|
E|---------------------|-----------2-------|--3---------3-----|------------------|

  26 S T T S T T S S S S    S T  T S T  T S T  T S T  T    S T T S T T S S S S
e|-----------------------|--9------9------9------9------|--7-------------------|
B|---0---0-----0---0-0-0-|--8---11-8---11-8---11-8---11-|--7---0-----0---0-0-0-|
G|-----------------------|--9------9------9------9------|--8-------------------|
D|-----------------------|------------------------------|----------------------|
A|---6-------------------|------------------------------|----------------------|
E|---7-7---7-7---7-7-7-7-|--7-7----7-7----7-7----7-7----|--7-7---7-7---7-7-7-7-|

  29 S T  T S T  T S T  T S T  T    S S S S S S S S    S S S S S S S S
e|---9------9------9------9------|--7---------------|------------------|
B|---8---11-8---11-8---11-8---11-|--7-------0-------|--0---0---0-------|
G|---9------9------9------9------|--8---------------|--------5---2-0---|
D|-------------------------------|------------------|----8-----------4-|
A|-------------------------------|------------------|------------0-----|
E|---7-7----7-7----7-7----7-7----|--7-6-7-8-7-6-7-8-|--7-6-7-8-7---3-2-|

  32 S S S S S S S S    S S S S S S S S    S  S  S S S  S S S
e|-----7-5-3---3-2-0-|----7-5-3---3-2-0-|----12-10-8----0-----|
B|-----8-7-5---------|----8-7-5---------|---------------------|
G|-------------4-2-0-|------------4-2-0-|-----------------7-5-|
D|-------------------|------------------|----10--9-7---10-9-7-|
A|---7---------------|--7---------------|--0---------0--------|
E|---0-------0-------|--0-------0-------|---------------------|

  35 S  S  S S S  S S S      S S S S   S S S S      S S S S   S S S S
e|-----12-10-8----0-----|------3-2-0-----3-2-0-|------2-0-------2-0---|
B|----------------------|----------------------|----------4---------4-|
G|------------------7-5-|------4-2-0-----4-2-0-|------2-0-------2-0---|
D|-----10--9-7---10-9-7-|----------------------|----------4---------4-|
A|---0---------0--------|--1g2-------1g2-------|--1g2-------1g2-------|
E|----------------------|----------------------|----------------------|

  38 S S T T  T T T T T T S S    Q    S S S S    E  S. T E  E
e|---1-1---0h-1---------------|---------------|----------------|
B|---0-0--------3-0-----------|-------------0-|--1--5--3-1-----|
G|---1-1------------1---------|---------1-2---|-----4----2-----|
D|---0-0--------------4-0-----|---------0-----|----------------|
A|------------------------2---|-----------3-2-|--0-------0-----|
E|--------------------------4-|--1----0-------|-----4----------|

  41 S S T T  T T T T T T T T T T    T T T T T T T T T T T T T T T T
e|---3-3---2h-3-0---0-------------|----------------------------------|
B|---2-2----------2-----2---------|----------------------------------|
G|---3-3--------------3---0-3---0-|------0-------0-------0-------0---|
D|---2-2----------------------2---|----2---2---2---2---2---2---2---2-|
A|--------------------------------|--4-------3-------2-------1-------|
E|--------------------------------|----------------------------------|

  43 S T T S S S S S S    S S S S S S S S    S   T T T T T T S S S S
e|---------------------|------------------|----------------7---------|
B|---0-0-0-0-0-0-0-0-0-|--0-0-0-0-0-0-0-0-|--0-2g0---0---7---0-0-0-0-|
G|---------------------|------------------|--2---------8-------------|
D|---1-------------1---|--2---3---4---6---|--4-----8-------------1---|
A|---2-------------2---|--4---5---6---8---|----------------------2---|
E|---------------------|------------------|--------------------------|

  46 S S S S S S S S    S   T T T T T T S S S S    S   T T T T T T S S S S
e|-------------------|----------------7---------|----------------7---------|
B|---0-0-0-0-0-0-0-0-|--0-2g0---0---7---0-0-0-0-|--0-2g0---0---7---0-0-0-0-|
G|-------------------|--2---------8---------1---|--2---------8---------1---|
D|---2---3---4---6---|--4-----8-------------4---|--4-----8-------------4---|
A|---4---5---6---8---|--------------------------|--------------------------|
E|-------------------|--------------------------|--------------------------|

                                                          AH   AH   AH    NH  AH
  49 Q    S S S S S S S E.  S S S S S S S S S S S E.      E    E    E     S   S
e|--------------------7-8---5---5---------------------|-2<14>--------------------|
B|---0----2-0---0---7---------7-----7-----------------|-----------1<13>--<12>----|
G|---2------------8---------------8---5-8---5---------|------2<14>----------2<14>|
D|---4--------8---------------------------8-----8-----|--------------------------|
A|--------------------------------------------9---6---|--------------------------|
E|----------------------------------------------------|--------------------------|

       NH
  51   Q    Q       S S S S S S S S    S S  S S S S  S S    Q    Q
e|---------------|----3-2-0---3-2-0-|--------------------|--0---------|
B|---------------|------------------|--4--------4--------|--0---------|
G|---<12>--------|----4-2-0---4-2-0-|--------------------|--0---------|
D|---------------|------------------|--4--------4--------|------------|
A|---------------|------------------|----2h-3-2---2h-3-2-|------------|
E|---------------|--0-------0-------|--------------------|--0---------|

       NH      NH     NH    AH    AH     AH   AH   NH     AH    AH     NH     NH
  55   Q       E.     S     E     E   S  S    S    S      S     E.     E.     S
e|---<12>---------------|-----------------------------|-------1<13>--<12>-------|
B|-----------<12>-------|------------------------<12>-|-3<15>---------------<12>|
G|------------------<12>|-------------------1<13>-----|-------------------------|
D|----------------------|-4<16>-2<14>--2<14>----------|-------------------------|
A|----------------------|-----------------------------|-------------------------|
E|----------------------|-----------------------------|-------------------------|

      AH     AH                                                       AH     NH
  58  Q      Q       S S S S S S S S    S S   S S S S   S S    Q      E      E
e|----------------|----8-7-5---8-7-5-|--4-0-3g1-0-4-0-3g1-0-|--5----------------|
B|--3<15>--1<13>--|--5-------5-------|--3---------3---------|--5-----------<12>-|
G|----------------|--5-------5-------|--4---------4---------|--5----2<14>-------|
D|----------------|------------------|----------------------|-------------------|
A|----------------|--0-------0-------|----------------------|--0----------------|
E|----------------|------------------|--0---------0---------|-------------------|

      AH     AH    AH      AH                     AH      AH     AH    AH
  62  Q      E     E       Q    E.  S    Q.       E       Q      E.    S
e|--------------------|---------------|--------------|--------------------|
B|--1<13>-------------|---------------|--------------|--------------------|
G|---------2<14>------|-------------0-|--0-----------|--------------------|
D|---------------4<16>|--1<13>--4---2-|--2------2<14>|--1<13>--2<14>------|
A|--------------------|---------6-----|--1-----------|---------------3<15>|
E|--------------------|---------7-----|--------------|--------------------|

      AH     AH
  66  Q      Q       Q    Q       Q.     E     S S S S S S S S
e|----------------|------------|------------|--0---2---3---5---|
B|----------------|--4---------|---------0--|----0---0---0---0-|
G|----------------|--4---------|------------|--0---------------|
D|----------------|--4---------|------------|------1---2---4---|
A|--3<15>--2<14>--|--2---------|------------|------------------|
E|----------------|------------|------------|------------------|

  70 S S S S S S S S    S S S S S S S S      S S S S S S S S    S S S S S S S S
e|---7-----0-0---0---|--7-----0-0---0---|--2g3-----5-3---7---|--6-----6-5-----5-|
B|-----0---0---0---0-|------------------|------0---0---0---0-|----5---5---0---0-|
G|-------0-------0---|----5---5---5---5-|--------0-------0---|------6-----------|
D|-------------------|------7-------7---|--------------------|--4-L-L-L-----4---|
A|-------------------|------------------|--------------------|----------6-L-L-L-|
E|---0-L-L-L-0-L-L-L-|--0-L-L-L-0-------|----0-L-L-L-0-L-L-L-|------------------|

  74 S S S T  T S S S S    S S S S S S S S    S S S S S S S S
e|---3-----7p-5-3-------|----1---3---5-7-8-|--0---------------|
B|-----0---0------0---0-|----1---1---------|----------4-------|
G|-------0----------0---|------2-----5---5-|----4---4---4---4-|
D|----------------------|--------------7---|------5-------4---|
A|----------------------|--0-L-L-L-0-------|----------2-------|
E|---0-L-L-L----0-L-L-L-|------------------|--7---------------|

                                   |----6----|
  77 S S   S S S S S S    S S S  S S S S S S S    S S S S S S S S
e|-------2g0-----------|------7-10---8-7-8-0-5-|--5---3-------2---|
B|---3-------3-3---3---|----8------------------|----3---3---3---3-|
G|---------------------|--7--------------------|------4-------2---|
D|-----0-----0---0---0-|-----------------------|--0-L-L-L-0-L-L-L-|
A|---------0-------3---|-----------------------|------------------|
E|---2---------2-------|--7--------8-----------|------------------|

             |----6----|
  80 S S S S S S S S S S    S S S S S S S S    E  E   E  E     E  E  E  E
e|---3-------------------|------------------|-----7--10-----|--7--0--3--2--|
B|-------0-3---1-0-1-----|------------------|-----8------8--|--------0--0--|
G|-----0---------------2-|--2---0-----------|--0-----11--9--|--7--5-----2--|
D|-------------------2---|----0---0---0-4-0-|--0------------|-----------1--|
A|-----------3-----------|--2-------0-------|--2------------|--------------|
E|---3-------------------|------------------|--3------------|--------------|

                                                      |-3-| |-3-| |-3-| |-3-|
  84 E  E  E  E     E  E  E  E     S S S S S S S S    S S S S S S S S S S S S
e|---0-----------|--------------|------------------|--0-----2-----3-----5-----|
B|---0--0--3-----|--0-----------|----0---0---0---0-|------0-----0-----0-----0-|
G|---0--0-----0--|--------0-----|------0-------0---|----0---------------------|
D|---2-----4--2--|--0--2-----4--|--2-------2-------|----------1-----2-----4---|
A|---------------|-----3-----6--|------------------|--------------------------|
E|---------------|--------7--7--|--0-------0-------|--------------------------|

   |-3-| |--3-| |-3-| |-3-|    |----6----| |------6-----|
88 S S S S S  S S S S S S S    S S S S S S S S S  S   S S

e|---7-------6h-7-3---------0-|--8-------------5-8-12p-10-8-|
B|---------0----------0---4---|--------------5--------------|
G|-------0----------0---------|------------5----------------|
D|----------------------------|----------7------------------|
A|----------------------------|------0-7--------------------|
E|-----0----------0-----------|----0------------------------|

     |-3-| |--3-| |-3-| |-3-|    |----6----| |----6----|
  90 S S S S S  S S S S S S S    S S S S S S S S S S S S
e|--7-------6h-7-3---------0-|--6-----------5-----------|
B|--------0------------0-4---|--------5-----------------|
G|------0------------0-------|------6---6---------4-----|
D|---------------------------|----4-------4-----4---4---|
A|---------------------------|----------------6-------6-|
E|----0------------0---------|--------------------------|

     |-3-| |-3-| |-3-|   |-3-|    |----6----| |-----6----|
  92 S S S S S S S S S   S S S    S S S S S S S S S S  S S
e|---3-----2-----0-----2g0---0-|------------------5-8p-5---|
B|-------0-----0-----0-----4---|--6---------6---6--------6-|
G|-----------2-----0-----------|----------5---5------------|
D|-----2-----------------------|--------7------------------|
A|-----------------------------|------8--------------------|
E|-----------------------------|----5----------------------|

     |----6----| |----6----|    |-----6----| |----6----|
  94 S S S S S S S S S S S S    S S  S S S S S S S S S S
e|---------0-----------------|-------------2-5-3-2-0-----|
B|-------0---0---------4-----|-----------3---7-5-3-1-3-1-|
G|-----0-------0-----4---4---|---------2-------------4-2-|
D|-----------------4-------4-|----0h-4-------0-----------|
A|---2-----------2-----------|--0------------------------|
E|---------------------------|---------------------------|

   |----6----| |----6----|    |-3-| |-3-| |-3-| |-3-|
96 S S S S S S S S S S S S    S S S S S S S S S S S S

e|-----------3-7---------5-8-|----7-----3-----5-----2---|
B|---------3-----------5-----|--------------------------|
G|-------4-----------5-------|------7-----4-----5-----2-|
D|-----5-----------7---------|--0-----0-----0-----0-----|
A|---------------------------|--------------------------|
E|---3-----------8-----------|--------------------------|

                                   tr             tr
     |-----6-----| |-----6----|    |------6-----| |------6-----|
  98 S S S  S  S S S S S S  S S    S    S S S S S S    S S S S S
e|---------10p-8-7---0-5-8p-7-5-|--3(5)-2-3-7-5-3-2(3)-0---5-3---|
B|-------8----------------------|------------------------7-----7-|
G|-----7------------------------|--------------------------------|
D|------------------------------|--0--------------0--------------|
A|-----------------3------------|--------------------------------|
E|---7--------------------------|--------------------------------|

         |-----6-----| |-3-|    |-3-| |-3-| |-3-| |-3-|       |-3-| |-3-| |-3-|
  100 E  S S S  S S  S S S S    S S S S S S S S S S S S    E  S S S S S S S S S
e|---------7-8-10-9-10-----5-|--7-6-7---0-2-3-2-0-2-3-2-|--0----------0-2-3-----|
B|----8--8---------------8---|--------------0-----0-----|--0----0-1-3-----------|
G|----0--------11------9-----|--7-----5-----------------|-----0-------------0-2-|
D|---------------------------|--------------------1-----|--2--------4-----2-----|
A|---------------------------|--------------------------|-----------------------|
E|---------------------------|--------------------------|-----------------------|

    |-3-| |-3-| |-3-| |-3-|
103 S S S S S S S S S S S S    S S S S S S S S

e|----------0-----------------|------------------|
B|----0-1-3-------------------|----0---0---0---0-|
G|----------------0-2-0-------|------0-------0---|
D|----0-------2-4-------4-5-4-|--2-------2-------|
A|----------3-----2-----2-----|------------------|
E|----------------------------|--0---------------|

  105 T T T T T T T T T T T T T T T T    T T T T T  T T  T T T T T T  T T T
e|---0-----0-2-----2-3-----3-5-----5-|--7-------6h-7-8p-7---------2p-0---0-|
B|-------0-------0-------0-------0---|--------0-----------8-----0------4---|
G|-----0-----------------------------|------0-----------------0------------|
D|-------------1-------2-------4-----|-------------------------------------|
A|-----------------------------------|-------------------------------------|
E|-----------------------------------|----0-----------------0--------------|

  107 T T T  T T T T T T  T T T T T  T  T    T T T T T T T T T T T T T T T T
e|----8--------------0-5p-0---0-5-8-12p-8-|--7-------6-7-8-7---------2-0---0-|
B|-----------------1----------------------|--------0---------8-----0-----4---|
G|---------------2----------5-------------|------0---------------0-----------|
D|-------------2--------------------------|----------------------------------|
A|--------0h-3----------------------------|----------------------------------|
E|------0---------------------------------|----0---------------0-------------|

  109 T T T T T T T T T T T T T T T T    T T T T T T T T T T T T T T T T
e|----6-0---0---0---0-5---------------|--3-----3-2-----2-0-----0-------0-|
B|--------2-------------4-0-4---3---3-|------0-------0-------0-----4-----|
G|------------0---------------5---4---|------------2-------0-------------|
D|----------------4-------------------|----2---------------------4---2---|
A|------------------------------------|----------------------------------|
E|------------------------------------|----------------------------------|

  111 T T T T T T T T T T T T E     T T T T T T T T E  S. T
e|--------------------5-----5-8--|----------0-----0-------7-|
B|----6-------6-----6-----6------|------------8-7---4-------|
G|----------5-----5-----5--------|--------6---------4-------|
D|--------7-----7----------------|------5-------------------|
A|------0------------------------|----7-------------2-------|
E|-------------------------------|--6-----------------------|

  113 T  T T T T T T T T  T T T T T T T    T  T T T T T T T T  T T T T T T T
e|----8p-7-----------7-8p-7-0-----0---7-|--8p-7-----------7-8p-7-0-----0---7-|
B|-----------7-----7----------8-----8---|---------7-----7----------8-----8---|
G|---------8-----8----------------------|-------8-----8----------------------|
D|--------------------------------------|------------------------------------|
A|--------------------------------------|------------------------------------|
E|----7--------7-------7--------7-------|--7--------7-------7--------7-------|

  115 T  T T T T T T T T  T T T T T T T    T  T T T T T T T T  T T T S. T
e|----6p-5-----------5-6p-5-----------5-|--6p-5-----------5-6p-5----------|
B|-----------5-----5----------6-----6---|---------5-----5----------6----6-|
G|---------6-----6----------7-----7-----|-------6-----6----------7--------|
D|--------------------------------------|---------------------------------|
A|----0--------0-------0--------0-------|--0--------0-------0--------0----|
E|--------------------------------------|---------------------------------|

  117 T T T T T T T T  T T T T  T T T  T     T T T T T T T  T  T T T T  T T T T
e|------------------7--7--------------10-|--10-------7-----13-13-------13-------|
B|----6-------------------------8--------|-----0---0---0----0----0---0----0---0-|
G|------------7------------0--------0----|-------0-------0---------0--------0---|
D|------5---5---5---5----9---9----9----9-|---0-------0---------0--------0-------|
A|--------5-------5----------------------|--------------------------------------|
E|----7-------7-------10-------10--------|--------------------------------------|

  119 T T T T  T T T T  T T T T  T T T T     T T T T  T T T T  T T T T  T T T T
e|---13-------13-------13-------12-------|--13-------13-------13-------12-------|
B|----------0--------0--------0--------0-|---------0--------0--------0--------0-|
G|--------0--------0--------0--------0---|-------0--------0--------0--------0---|
D|------0--------0--------0--------0-----|-----0--------0--------0--------0-----|
A|---------------------------------------|--------------------------------------|
E|---------------------------------------|--------------------------------------|

  121 T T T T  T T T T  T T T T  T T T T     T T T T  T T T T  T T T T T T T T
e|----13-------12-------13-------12-------|--13-------12-------10-------8-------|
B|-----------0--------0--------0--------0-|---------0--------0--------0-------0-|
G|---------0--------0--------0--------0---|-------0--------0--------0-------0---|
D|-------0--------0--------0--------0-----|-----0--------0--------0-------0-----|
A|----------------------------------------|-------------------------------------|
E|----------------------------------------|-------------------------------------|

  123 T T T T T T T T T T T T T T T T
e|----7-------5-------3-------2-------|
B|----------0-------0-------0-------0-|
G|--------0-------0-------0-------0---|
D|------0-------0-------0-------0-----|
A|------------------------------------|
E|------------------------------------|

  124 Q    E  X X X X X X X X X X X X X X X X T T S E  E
e|----1----5--4-3-2-1-0-----------------------------------|
B|----------------------4-3-2-1-0-------------------------|
G|--------------------------------3-2-1-0-----------------|
D|----------------------------------------4-3-2-1-0-------|
A|--------------------------------------------------3--2--|
E|--------------------------------------------------------|


[II. Andante Grazioso]
1    H        E  E     E  E  E  E  E  E     S. T S. T S. T Q    E
e|-----------------|--0-----------------|-------------------------|
B|-----------------|--------3--1-----0--|----------1-0--3-1-------|
G|--------------0--|--0--------------0--|--2--1-2----1----0----0--|
D|-----------------|--------3--2--------|--3---------3----2-------|
A|-----------------|--3--3--3--3--3--3--|--3---------3----3-------|
E|-----------------|--------------------|-------------------------|

  4 E  E  E  E  S T  T T  T T  T
e|-----1--0----------------------|
B|----------------5p-3-5p-3-5p-3-|
G|--0-----0--2---------5---------|
D|--0-----2--3---------4---------|
A|--2-----3------------0---------|
E|-----------1-------------------|

  5 Q.     X X X X S X X X X X X X X X X X X X X T Q       H        E  E
e|---------------3-7-5-3-2-0----------------------------|-----------------|
B|--3----------3-------------3-1-0----------------------|-----------------|
G|--4--------4---------------------2-0------------------|--------------0--|
D|--5------5---------------------------4-2-0------------|-----------------|
A|-------------------------------------------3-2-0------|-----------------|
E|--3----------------------------------------------3----|-----------------|

    |--3--| |-3-| |-3-| |--3--| |-3-| |-3-|
  7 S   S S S S S S S S S   S S S S S S S S
e|--0-1g0---0-3-1---1-------------0---------|
B|--1-----3-------3---3-1-3g1-0-1---3---3-1-|
G|--0-------------1-----2-------------3-----|
D|------------------------------------5-----|
A|--3-------------2-----0-------------------|
E|------------------------------------0-----|

                                        
  8 S T T T T T T T T T T E  T T T  T T  T T T
e|------------------1---5-8----4-7p-5-0h-1-----|
B|--------------1----------------------------3-|
G|--2-------2---------2---5----------------2---|
D|------3---------3----------------------------|
A|--------0---3--------------------------------|
E|--1-1----------------------------------------|

  9 S S T  T T T T T T T T T  T T T  T T T T T T T    S S S S S S Q    E
e|------2h-3-5-3---0---------------------0-1-3-5---|--------0---0------0--|
B|--3-1----------6---3-1-0-1p-0---0h-1-3---------0-|--1---1---4---1-------|
G|--0--------------------0------2------------------|----0---0---0---------|
D|--2--------------------0-------------------------|--2---2---4---2-------|
A|-------------------------------------------------|--3-------3---3-------|
E|--3--------------------3-------------------------|----------------------|

  11 S S S. T T T T T S S S. T T T T T    S S S S S S T T T T T T T T T  T T T
e|-------7--5-3-2-0-------5--3-2-0-----|------------------------0-3-2-5p-3-2-0-|
B|---3--------------3-1------------3-1-|--0-------------------1----------------|
G|---4----------------2----------------|--0-----------------0------------------|
D|-----0----------------0--------------|----0-------------2--------------------|
A|-------------------------------------|------3-2-0-----3----------------------|
E|-------------------------------------|------------3-0------------------------|

  13 T T T T T T T T  T  T T T  T  T T T T T T T   T T T T
e|-----------------7-10p-9-8-7---------0-----0-------------|
B|-----------0---8-------------10p-8-7---3-2---3-3g1-0-1---|
G|---------0---7-----------------------------------------2-|
D|-------0----------------------0--------------------------|
A|-----2---------------------------------------------------|
E|---3-----------------------------------------------------|

  14 T T T T T  T T  T T  T T  T T T T T T T T T T T T T
e|-------------------------------------------0---1-------|
B|-------------------------------1---2---3-----------3---|
G|-----0---0-1p-0-2p-0-3p-0-4p-0---0---0---0---0---0---0-|
D|-------4-----------------------------------------------|
A|-------------------------------------------------------|
E|---3---------------------------------------------------|

  15 T T T T T T T T T T T T T T T T T T T T T T T T
e|---0---------3-1-0---1-0-------------0-------------|
B|-------------------3-----3-1-----------3-1-0-3-1-0-|
G|---------0-----------------------2-----------------|
D|-------2-----------------------2-------------------|
A|-----3-----3-------2---------0-----0---------------|
E|-------------------------------------------3-------|

  16 T T T T T T T T T T T T E  T T  T T T  T T T
e|-------------------5-----5-8----4h-7-5-0h-1-----|
B|-----------------6-----6----------------------3-|
G|---2-----------5-----5----------------------2---|
D|-------------7----------------------------------|
A|-------0---8------------------------------------|
E|-----1---8--------------------------------------|

  17 
e|-----0-5p-3-1-0-------------------7-10-13--12p-10---8-7--5-3--2-5p-3-0-3p-1------|
B|----1------------3-1-0-------0---8-------------------------------------------3-0-|
G|---0------------------------0---7------------------------------------------------|
D|--2------------------------0-----------------------------------------------------|
A|-3------------------------2------------------------------------------------------|
E|3------------------------3-------------------------------------------------------|

                            |-3-| |-3-| |-3-| |-3-| |-3-| |-3-|
  18 S S S S S S Q    E     S S S S S S S S S S S S S S S S S S
e|---------0---0---------|--------0-----------------------------|
B|---1---1---4---4-------|--------------3-----------1-----0-----|
G|-----0---0---0------0--|------0---0-----0-------0---0-----0---|
D|---2---2---4---4-------|----2-------2-----2---2-------2-----2-|
A|---3-------3---3-------|--3-----------------3-----------------|
E|-----------------------|--------------------------------------|

     |-3-| |-3-| |-3-| |-3-| |-3-| |-3-|    |-3-| |-3-| |-3-| |-3-| |-3-| |-3-|
  20 S S S S S S S S S S S S S S S S S S    S S S S S S S S S S S S S S S S S S
e|---------------------------------0-----|--------1---------0-------------------|
B|-------------------0-------1-----------|--------------------------3---------1-|
G|---------2-------1-------0---0-----0---|------0---0-----0---------------------|
D|-------3---3---3-------2-------2-----2-|----0-------0-----------3---3-----0---|
A|-----3-------3-------3-----------------|--2-----------3-------0-------0-------|
E|---1-----------------------------------|--------------------1-----------2-----|

     |-3-| |-3-| |-3-| |-3-| |-3-| |-3-|    |-3-| |-3-| |-3-| |-3-| |-3-| |-3-|
  22 S S S S S S S S S S S S S S S S S S    S S S S S S S S S S S S S S S S S S
e|---------------1-0---------------------|--------0-----------------------------|
B|-----------0-3-----4-3-2-1-0-----------|--------------3-----------1-----0-----|
G|---------0-------------------2-0-------|------0---0-----0-------0---0-----0---|
D|-------0-------------------------3-2-0-|----2-------2-----2---2-------2-----2-|
A|-----2---------------------------------|--3-----------------3-----------------|
E|---3-----------------------------------|--------------------------------------|

     |-3-| |-3-| |-3-| |-3-| |-3-|       |-3-| |-3-|      |-3-| |-3-|
  24 S S S S S S S S S S S S S S S E     S S S S S S S. T S S S S S S S. T
e|---------------------1-----5-----8--|------------0-5--3-------------4p-3-|
B|---------------1-------1-----6------|----------1----------------0-3------|
G|---------2-------2-------2-----5----|--------0----------------0----------|
D|-------3---3-------3----------------|------2----------------0------------|
A|-----0-------0----------------------|----3----------------2--------------|
E|---1--------------------------------|--3----------------3----------------|

     |-3-| |--3-| |-3-|            |-3-| |-3-|      |-3-| |-3-|
  26 S S S S S  S S S S Q    E     S S S S S S S. T S S S S S S S. T
e|-----------3p-0------------0--|------------3-7p-3-----------2-5p-2-|
B|---------1------1-------------|--3-------3--------1-------1--------|
G|-------0----------0-----------|----4---4------------2---2----------|
D|-----2--------------2---------|------0----------------0------------|
A|---3------------------3-------|------------------------------------|
E|------------------------------|------------------------------------|

     |-3-| |-3-| |--3-| |-3-| |-3-| |--3-|   |-3-| |-3-| |-3-| |-3-| |-3-| |-3-|
  28 S S S S S S S S  S S S S S S S S  S S   S S S S S S S S S S S S S S S S S S
e|-----------------3p-2-0---------0-3p-2-0-|-----------------7-8-5-----0---------|
B|---0---------0-3--------------1----------|-3---------0---8-------8-7---3-1-0---|
G|-----------0----------------0------------|---------0---7---------------------2-|
D|---------0----------------2--------------|-------0-----------0-----------------|
A|-------2----------------3----------------|-----2-------------------------------|
E|-----3-----------------------------------|---3---------------------------------|

     |-3-| |-3-| |-3-| |-3-| |-3-| |-3-|    |-3-| |-3-| |-3-| |-3-| |-3-| |-3-|
  30 S S S S S S S S S S S S S S S S S S    S S S S S S S S S S S S S S S S S S
e|---------------------------------------|--------0-----------------------------|
B|-------0-----0-----0-----0-----1-----3-|--------------3-----------1-----0-----|
G|-----0-----0-----0-----0-----0-----0---|------0---0-----0-------0---0-----0---|
D|---5-----5-----4-----3-----2-----0-----|----2-------2-----2---2-------2-----2-|
A|---------------------------------------|--3-----------------3-----------------|
E|---------------------------------------|--------------------------------------|

     |-3-| |-3-| |-3-| |-3-| |-3-|       |-3-| |-3-|      |-3-| |-3-|
  32  S S S S S S S S S S S S S S S E     S S S S S S S. T S S S S S S S. T
e|---------------------1-----5-----8--|------------0-5p-3-------------4p-3-|
B|---------------1-------1-----6------|----------1----------------0-3------|
G|---------2-------2-------2-----5----|--------0----------------0----------|
D|-------3---3-------3----------------|------2----------------0------------|
A|-----0-------0----------------------|----3----------------2--------------|
E|---1--------------------------------|--3----------------3----------------|

  34 T T T T T T T T T T T T T T T T T T T T T T T T
e|-----------0---------------------------------------|
B|---1---------------3-------1-------0-------1-------|
G|---------0-------0-------0-------0-------0-------0-|
D|-------2-------2-------2-------2-------2-------2---|
A|-----3-------3-------3-------3-------3-------3-----|
E|---------------------------------------------------|

  35 T T T T T T T T T T T T T T T T T T T T T T T T
e|---------------------------------------------------|
B|---3-------0-------1-------3-------1-------0-------|
G|---------1-------1-------1-------1-------1-------1-|
D|-------3-------3-------3-------3-------3-------3---|
A|-----3-------3-------3-------3-------3-------3-----|
E|---------------------------------------------------|

  36 T T T T T T T T T T T T T T T T T T T T T T T T
e|-----------0---------------------------------------|
B|---1---------------3-------1-------0-------1-------|
G|---------0-------0-------0-------0-------0-------0-|
D|-------2-------2-------2-------2-------2-------2---|
A|-----3-------3-------3-------3-------3-------3-----|
E|---------------------------------------------------|

  37 T T T T T T T T T T T T T T T T T T T T T T T T
e|---------------------------------------------------|
B|---3-------0-------1-------3-------1-------0-------|
G|---------1-------1-------1-------1-------1-------1-|
D|-------3-------3-------3-------3-------3-------3---|
A|-----3-------3-------3-------3-------3-------3-----|
E|---------------------------------------------------|

  38 T T T T T T T T T T T T T T T T T T T T T T T T
e|-----------0-----------------------0---------------|
B|---1---------------3-------1---------------3-------|
G|---------0-------0-------0-------0-------0-------0-|
D|-------2-------2-------2-------2-------2-------2---|
A|-----3-------3-------3-------3-------3-------3-----|
E|---------------------------------------------------|

  39 T T T T T T T T T T T T T T T T T T T T T T T T
e|-----------0---------------------------------------|
B|---2---------------3-------2-------0-------2-------|
G|---------0-------0-------0-------0-------0-------0-|
D|-------2-------2-------2-------2-------2-------2---|
A|-----0-------0-------0-------0-------0-------0-----|
E|---------------------------------------------------|

  40 T T T T T T T T T T T T T T T T T T T T T T T T
e|-----------1-------0---------------1-------0-------|
B|---3-----------------------3-----------------------|
G|---------2-------2-------2-------2-------2-------2-|
D|-------3-------3-------3-------3-------3-------3---|
A|-----0-------0-------0-------0-------0-------0-----|
E|---------------------------------------------------|

  41 T T T T T T T T T T T T T T T T T T T T T T T T
e|-----------2---------------------------------------|
B|---2---------------5-------3-------2-------3-------|
G|---------2-------2-------2-------2-------2-------2-|
D|-------4-------4-------4-------4-------4-------4---|
A|-----2-------2-------2-------2-------2-------2-----|
E|---------------------------------------------------|

  42 T T T T T T T T T T T T T T T T T T T T T T T T
e|---------0---7---0-------0-------0-------0-------0-|
B|-------0---9---9-------0-------3-------1-------0---|
G|-----------------------------4-------2-------1-----|
D|-----6---------------6-----------------------------|
A|---------------------------------------------------|
E|---0---------------0-------0-------0-------0-------|

  43 T T T T  T T  T T T T T T T T T T T T T T T T T T
e|---------0----8----0---------------0-------0-------0-|
B|-----------10---10---------0-----5-------3-------1---|
G|-------5-----------------5-----5-------4-------2-----|
D|-----7-----------------7-----------------------------|
A|-----------------------------------------------------|
E|---0-----------------0-------0-------0-------0-------|

  44 T T T T T T T T T T T T T T T T T T T T T T T T
e|---------0---7---0-------0-------0-------0-------0-|
B|-------0---9---9-------0-------3-------1-------0---|
G|-----------------------------4-------2-------1-----|
D|-----6---------------6-----------------------------|
A|---------------------------------------------------|
E|---0---------------0-------0-------0-------0-------|

  45 T T T T  T T  T T T T T T T T T T T T T T T T T T
e|---------0----8----0---------------0-------0-------0-|
B|-----------10---10---------0-----5-------3-------1---|
G|-------5-----------------5-----5-------4-------2-----|
D|-----7-----------------7-----------------------------|
A|-----------------------------------------------------|
E|---0-----------------0-------0-------0-------0-------|

  46 T T T T T T T T T T T T T T T T  T T  T T T T T T
e|---------0---7---0-------0-------0----8----0-------0-|
B|-------0---9---9-------0-----------10---10-----------|
G|-------------------------------5-----------------5---|
D|-----6---------------6-------7-----------------7-----|
A|-----------------------------------------------------|
E|---0---------------0-------0-----------------0-------|

  47 T T T T T T T T T T T T T T T T  T T  T T T T T T
e|---------0---7---0-------0-------0----8----0-------0-|
B|-------0---9---9-------0-----------10---10-----------|
G|-------------------------------5-----------------5---|
D|-----6---------------6-------7-----------------7-----|
A|-----------------------------------------------------|
E|---0---------------0-------0-----------------0-------|

  48 T T T T T T T T T T T T T T T T T T T T T T T T
e|---------0---7---0---7---0---7---0---7---0---7---0-|
B|-------0---9---9---9---9---9---9---9---9---9---9---|
G|---------------------------------------------------|
D|-----6---------------------------------------------|
A|---------------------------------------------------|
E|---0-----------------------------------------------|

  49   Q.       E    E    E       E  E  E  E  E  E
e|--7g12---------------------|----------------------|
B|------------4g5------------|----------------------|
G|-----------------3g4-------|----------------------|
D|----------------------5g6--|--1g2-----------------|
A|---------------------------|----------------------|
E|---------------------------|-------0--1--2--3--4--|


[III. Maestoso]
1    E.  S E.  S E.  S E.  S    E.  S E.  S E.  S E.  S
e|--------------------------|--0-----------------------|
B|------------------2-0---2-|--2-----------3---3-2---3-|
G|------------------2-1---2-|--------------4---4-3---4-|
D|--------------------------|--------------------------|
A|--0---0-0---0-0-----0-----|--0---0-0---0-0-----0-----|
E|--------------------------|--------------------------|

  3 E.  S E.  S E.  S E.  S    E.  S E.  S E.  S E.  S
e|--2-----------0---5-4---5-|--9-----------7---7-6---7-|
B|--3-----------------------|--------------------------|
G|--------------6---6-5---6-|--9-----------7---7-6---7-|
D|--------------------------|--------------------------|
A|--0---0-0---0-0-----0-----|--0---0-0---0-0-----0-----|
E|--------------------------|--------------------------|

  5  E.  S E.  S E.  S E.  S    E.  S E.  S E.  S E.  S
e|--10-----------9-----------|--0-----0-----0-----0-----|
B|---------------------------|--3---2-3---2-3---2-3---4-|
G|--11-----------9---6-4---6-|--4---3-4---3-4---3-4---5-|
D|-------------------7-6---7-|--------------------------|
A|---0---0-0---0-0-----0-----|--0-----0-----0-----0-----|
E|---------------------------|--------------------------|

  7 E.  S E.  S E.  S E.  S    E.  S E.  S E.  S E.  S
e|--0-----0-----0---5-4---5-|--7---6-7---6-7---6-7---8-|
B|--5---4-5---4-5-----------|--------------------------|
G|--6---5-6---5-6---6-5---6-|--7---6-7---6-7---6-7---8-|
D|--------------------------|--------------------------|
A|--0-----0-----0-----0-----|--0-----0-----0-----0-----|
E|--------------------------|--------------------------|

  9 E.  S E.  S E.   S E.   S     E.   S  E.   S  E.   S  E.   S
e|--9---8-9---8-9----9-8----9-|--10----9-10----9-10----9-10---11-|
B|------------------10-9---10-|--12---11-12---11-12---11-12---13-|
G|--9---8-9---8-9-------------|----------------------------------|
D|----------------------------|----------------------------------|
A|--0-----0-----0------0------|---0-------0-------0-------0------|
E|----------------------------|----------------------------------|

  11  H        Q    E  E     H        Q    Q       Q    E  S  S Q    E  E
e|---12----------------0--|---------------------|--------------------------|
B|---14-------------------|---------------------|--3----2--3p-2-0-------3--|
G|------------------------|-----------0---------|--------------------------|
D|------------------------|--4-------------4----|---------------0----------|
A|----0-------------------|---------------------|--2----4--L--L------------|
E|------------------------|--2--------3----2----|--------------------------|

  14 H        Q    Q       Q    E  S S E.  S E.  S    Q    Q    Q    Q
e|----------------------|------------------4-5---7-|--9----5----2----7----|
B|----------------------|--2----0--2-0-------------|----------------------|
G|----------------------|--------------2---1-2---4-|--6----2---------4----|
D|---2--------3----2----|--------------------------|------------4---------|
A|----------------------|--0----2--L-L-4---L-L-----|----------------------|
E|---0--------1----0----|--------------------------|----------------------|

                           |---3--|       |---3--|
  17 H        Q    Q       E   E  E  Q    E   E  E  Q
e|---0------------------|--------------------------------|
B|-----------------0----|------------0--------------0----|
G|----------------------|--2p--1----------2p--1----------|
D|---2------------------|---------4--1-----------4--1----|
A|----------------------|--------------------------------|
E|----------------------|------------2--------------2----|

     |--3--|  |--3--|  |---3--|  |---3--|     |---3--|       |---3--|
  19  E  E  E  E  E  E  E  E   E  E  E   E     E   E  E  Q    E   E  E  Q
e|---------------------0-------------------|--------------------------------|
B|------------0-----0-----4p--2--0---------|------------0--------------0----|
G|---1-----1-----1------------------2p--1--|--2p--1----------2p--1----------|
D|-------2---------------------------------|---------4--1-----------4--1----|
A|-----------------------------------------|--------------------------------|
E|---0-----------------0-------------------|------------2--------------2----|

                                           
                              |--3--|  |---3--|  |--3--|  |---3--|
  21 E  E  E  E  Q    Q       E  E  E  E   E  E  E  E  E  E   E  E
e|--------------------0----|--2-----2--5p--4--2--4-----4--7p--5--4--|
B|-------------------------|-----3------------------5---------------|
G|---1---------------------|----------------------------------------|
D|------2------------------|--0-------------------------------------|
A|---------2---------------|----------------------------------------|
E|---0--------4--0---------|---------------------0------------------|

                 
     |--3--|  |---3--|  |--3--|   |---3--|
  23 E  E  E  E   E  E  E  E  E   E   E  E      E  E  E  E  E.  S E.  S
e|---5-----5--9p--7--5--7-----7--10p--9--7--|---9---------------7-5---4-|
B|------5------------------9----------------|--10---------------9-7---5-|
G|------------------------------------------|---------------------------|
D|------------------------------------------|---------------------------|
A|---0--------------------------------------|------0-----7--0-----------|
E|----------------------0-------------------|---------9-----------------|

  25 E  E  E  E  E.  S E.  S    E  E  E  E  E.  S E.  S
e|---2---------------4-5---7-|--0---------------0-2---4-|
B|---3-----------------------|------------------5-4---3-|
G|------------2--------------|--------------------------|
D|------0--4-----0-----------|--------------------------|
A|---------------------------|-----------2--------------|
E|---------------------------|-----0--4-----0-----------|

  27 E  E  E  E  E  E  E  E     E  E  E  S S E  E  E  E
e|---5--0-----------0--------|-----2-----0------0--------|
B|---2--2-----3--2--2-----2--|--3--3-----2-3-2--2--3--0--|
G|------------4--3--------3--|--4----------4-2-----4--1--|
D|---------------------------|--0-----0------2-----------|
A|---0-----0-----------------|---------------------------|
E|---------------2-----2-----|---------------------0-----|

  29 E  E  E  E  E  E  E  E     E  E  E  S S E  E  E  E
e|------0-----------0--------|-----2-----0------0--------|
B|---2--2-----3--2--2-----2--|--3--3-----2-3-2--2--3--0--|
G|---2--------4--3--------3--|--4----------4-2-----4--1--|
D|---------------------------|--0-----0------2-----------|
A|---0-----0-----------------|---------------------------|
E|---------------2-----2-----|---------------------0-----|

  31 E.  S E.  S E.  S E.  S    E.  S E.  S E.  S E.  S
e|---------------------------|--0-----------------------|
B|-------------------2-0---2-|--2-----------3---3-2---3-|
G|---2---------------2-1---2-|--------------4---4-3---4-|
D|---------------------------|--------------------------|
A|---0---0-0---0-0-----0-----|--0---0-0---0-0-----0-----|
E|---------------------------|--------------------------|

  33 E.  S E.  S E.  S E.  S    E.  S E.  S E.  S E.  S
e|---2-----------0---5-4---5-|--9-----------7---7-6---7-|
B|---3-----------------------|--------------------------|
G|---------------6---6-5---6-|--9-----------7---7-6---7-|
D|---------------------------|--------------------------|
A|---0---0-0---0-0-----0-----|--0---0-0---0-0-----0-----|
E|---------------------------|--------------------------|

  35  E.  S E.  S E.  S E.  S    E.  S E.  S E.  S E.  S
e|---10-----------9-----------|--0-----0-----0-----0-----|
B|----------------------------|--3---2-3---2-3---2-3---4-|
G|---11-----------9---6-4---6-|--4---3-4---3-4---3-4---5-|
D|--------------------7-6---7-|--------------------------|
A|----0---0-0---0-0-----0-----|--0-----0-----0-----0-----|
E|----------------------------|--------------------------|

  37 E.  S E.  S E.  S E.  S    E.  S E.  S E.  S E.  S
e|---0-----0-----0---5-4---5-|--7---6-7---6-7---6-7---8-|
B|---5---4-5---4-5-----------|--------------------------|
G|---6---5-6---5-6---6-5---6-|--7---6-7---6-7---6-7---8-|
D|---------------------------|--------------------------|
A|---0-----0-----0-----0-----|--0-----0-----0-----0-----|
E|---------------------------|--------------------------|

  39 E.  S E.  S E.  S E.  S     E.   S  E.   S  E.   S  E.   S
e|---9---8-9---8-9---9-8---9-|--10----9-10----9-10----9-10---11-|
B|---------------------------|----------------------------------|
G|---9---8-9---8-9---9-8---9-|--11---10-11---10-11---10-11---11-|
D|---------------------------|----------------------------------|
A|---0-----0-----0-----0-----|---0-------0-------0-------0------|
E|---------------------------|----------------------------------|

  41  E.   S  E.   S  E.   S  E.   S     E.   S  E.   S  E.   S  E.   S
e|---12---12-11---11-12---12-11---11-|--12---12-11---11-12---12-11---11-|
B|-----------------------------------|----------------------------------|
G|---12---12-11---11-12---12-11---11-|--12---12-11---11-12---12-11---11-|
D|-----------------------------------|----------------------------------|
A|----0-------0-------0-------0------|---0-------0-------0-------0------|
E|-----------------------------------|----------------------------------|

  43 Q    Q    Q     E   S   S    Q    Q    Q    E  S  S
e|--12--------------10--12p-10-|--9--------------7--9p-7-|
B|-----------------------------|-------------------------|
G|--12--------------11---------|--9--------------7-------|
D|-----------------------------|-------------------------|
A|---0----0----0-----0---------|--0----0----0----0-------|
E|-----------------------------|-------------------------|

  45 Q    Q    Q    E  S  S    Q    Q    Q    E  S  S
e|---5--------------3--5p-3-|--2--------------0--2p-0-|
B|--------------------------|-------------------------|
G|---6--------------4-------|--2--------------0-------|
D|--------------------------|-------------------------|
A|---0----0----0----0-------|--0----0----0----0-------|
E|--------------------------|-------------------------|


[IV. Moderato]
                                    sf
1  |   .   |   .   |   .   |   .     |   .   |   .   |   .   |   .
e|---------------------------------|---------------------------------|
B|-3=======------------------------|-3===========--------------------|
G|-----2-------2-------2-------2---|-------------2---2=======--------|
D|---------4---------------4-------|-----0-------0-------0-------0---|
A|-5---------------5---------------|---------0---------------0-------|
E|---------------------------------|-2---------------2---------------|
   p

   sf
3  |   .   |   .   |   .   |   .     |   .   |   .   |   .   |   .
e|-0===========--------------------|-0---2h3-2---0---------------0---|
B|-------------0---0=======--------|-----------------0---3---2-------|
G|---------------------------------|---------------------------------|
D|-----2-------2-------2-------2---|---------------------------------|
A|---------2---------------2-------|-----0-------0-------0-------0---|
E|-3---------------3---------------|-3-------3-------3-------3-------|

                                     sf
5  |   .   |   .   |   .   |   .     |   .   |   .   |   .   |   .
e|-----3p2-0-----------------------|---------------------------------|
B|-3---------3-2-0-----------------|-3===========--------------------|
G|-----------------2=======--------|-------------2---2=======--------|
D|---------------------------------|-----0-------0-------0-------0---|
A|-----0-------0-------0-------0---|---------0---------------0-------|
E|-2-------2-------2-------2-------|-2---------------2---------------|

   sf
7  |   .   |   .   |   .   |   .     |   .   |   .   |   .   |   .
e|-0===========--------------------|-0---2h3-2---0---------------0---|
B|-------------0---0=======--------|-----------------0---3---2-------|
G|---------------------------------|---------------------------------|
D|-----2-------2-------2-------2---|---------------------------------|
A|---------2---------------2-------|-----0-------0-------0-------0---|
E|-3---------------3---------------|-3-------3-------3-------3-------|

   piu mosso
9  |   .   |   .   |   .   |   .     |   .   |   .   |   .   |   .
e|-----2-2-2---2---2---2---2---2---|-----2-2-2---2-------2-2-2---2---|
B|-3-------------------------------|-2---------------2---------------|
G|---------------------------------|-3---------------3---------------|
D|-0=======4---4---4---4---4---4---|---------4---4-----------4---4---|
A|---------------------------------|---------------------------------|
E|---------------------------------|-2=======--------2=======--------|
   mf

11 |   .   |   .   |   .   |   .     |   .   |   .   |   .   |   .
e|-----2-2-2---2-------2-2-2---2---|-1---1=======1=======1=======1---|
B|-3---------------3---------------|-3---3=======3=======3=======3---|
G|-4---------------4---------------|-4---4=======4=======4=======4---|
D|---------4---4-----------4---4---|---------------------------------|
A|---------------------------------|---------------------------------|
E|-2=======--------2=======--------|-2=======2=======2=======2=======|
                                     f

                                                             Pause (wait)
13 |   .   |   .   |   .   |   .     |   .   |   .   |   .   |   .
e|-2---2=======1---2---2=======1---|-2=======2=======2=======--------|
B|-2---2=======3---2---2=======3---|-2=======2=======2=======--------|
G|-3---3=======4---3---3=======4---|-3=======3=======3=======--------|
D|---------------------------------|---------4=======----------------|
A|---------------------------------|---------------------------------|
E|-2=======2=======2=======2=======|-2=======--------2=======--------|

   return to the original tempo
15 |   .   |   .   |   .   |   .     |   .   |   .   |   .   |   .
e|---------------------------------|-2===================0-----------|
B|---------------------------------|-------------------------0---2---|
G|-----2-------2-------2-------2---|-----2-------2-------2---0---2---|
D|---------4---------------4-------|---------4-----------------------|
A|-5---------------5---------------|-5---------------0---------------|
E|---------------------------------|---------------------------------|
   p                                 sf

17 |   .   |   .   |   .   |   .     |   .   |   .   |   .   |   .
e|-----------------------------3-2-|---------0=======------0-2p0-3-0-|
B|-3=======------------2h3-5-3-----|-4=======------------4-----------|
G|-----2-------2-------------------|---------------------------------|
D|---------4-----------------------|---------------------------------|
A|-5---------------5=======--------|-----0---4---0-------------------|
E|---------------------------------|-3---------------3=======--------|

19 |   .   |   .   |   .   |   .     |   .   |   .   |   .   |   .
e|-7---6---5=======--------5=====5-|-5===============4=======5---4---|
B|---------------------------------|-----2-------2-------2-------2---|
G|---------------------------------|---------2---------------4-------|
D|-0-------0-------4-------0=======|-----------------3---------------|
A|-----0-------0-------0-----------|-4-------------------------------|
E|---------------------------------|---------------------------------|
                                     mf

21 |   .   |   .   |   .   |   .     |   .   |   .   |   .   |   .
e|-2=======------------------------|-2===================0-----------|
B|-----2-------2-------------------|-------------------------0---2---|
G|---------2-----------------------|-----2-------2-------2---0---2---|
D|-4---------------4=======--------|---------4-----------------------|
A|---------------------------------|-5---------------0---------------|
E|---------------------------------|---------------------------------|
                                     p

23 |   .   |   .   |   .   |   .     |   .   |   .   |   .   |   .
e|-----------------------------3-2-|---------0=======------0-2p0-3-0-|
B|-3=======------------2h3-5-3-----|-4=======------------4-----------|
G|-----2-------2-------------------|---------------------------------|
D|---------4-----------------------|---------------------------------|
A|-5---------------5=======--------|-----0---4---0-------------------|
E|---------------------------------|-3---------------3=======--------|

25 |   .   |   .   |   .   |   .     |   .   |   .   |   .   |   .
e|-7---6---5=======--------5=====2-|-0-5p4-2-0-5p4-2-0-5p4-2-0-------|
B|---------------------------------|-2-------------------------3p2-0-|
G|---------------------------------|-2-------------------------------|
D|-0-------0-------4-------0=======|---------------------------------|
A|-----0-------0-------0-----------|---------------------------------|
E|---------------------------------|-0=======0=======0=======0=======|
                                     f

27 |   .   |   .   |   .   |   .     |   .   |   .   |   .   |   .
e|-------------------------5=====5-|-5p3-2-3-2p0---0-----------------|
B|---------------------------------|-------------4---3p2-1-2-----0-2-|
G|---2-1---------------------------|-0=======----------------1h2-----|
D|-------4-2-0---------------------|---------------------------------|
A|-0=======----4-2-0=======--------|-0=======------------------------|
E|---------------------------------|---------------------------------|
                                     mf

29 |   .   |   .   |   .    |   .     |    .   |   .   |   .   |   .
e|-----0-------7-9-10--10p9-9p7-7---|------7---------0-----0-----------|
B|-3-----7-8-10-------------------10|-10p8---8-7p5-8---3p2---2-----0-2-|
G|----------------------------------|-0========--------0=======1h2-----|
D|-4=======-------------------------|----------------------------------|
A|-5=======-------------------------|-0========--------0=======--------|
E|----------------------------------|----------------------------------|

31 |   .   |   .   |   .   |   .     |      .      |   .   |   .    |   .
e|-0-------------------------------|--------2--5-5s10========9-7--------0---|
B|---3-2-0-------------------------|-3---------------------------10-8-7---3-|
G|---------2-0-------------2=====2-|----------------------------------------|
D|-4=======----4-2-0=======--------|-4=========------------0========--------|
A|-5=======------------------------|-5=========-----------------------------|
E|---------------------------------|----------------------------------------|

33 |     .      |   .   |    .   |    .     |   .   |   .   |   .   |   .
e|-0-----3--7-7s12========10-9-7--------0-|-------------5-------------5-7---|
B|-0--------------------0========10-8-7---|-------5-7-8---7-5---5-7-8-----8-|
G|-0--------------------0========---------|-7---7-----------6---------------|
D|----------------------------------------|---------------------------------|
A|----------------------------------------|-0=======--------0=======--------|
E|-3=====---------------------------------|---------------------------------|

35 |   .   |   .   |   .   |   .     |   .   |   .    |    .    |   .
e|---------2-----------------------|------------------10-9-7--------0---|
B|-6=======3-----------------------|---------3---7-10--------10-8-7---3-|
G|-6=======----2-----------2=====2-|-------2----------------------------|
D|-----0---4-----------------------|-----4------------------------------|
A|-----------------5=======--------|-5=======---------------------------|
E|---------------------------------|------------------------------------|
                                     f

37 |   .   |   .   |     .    |     .      |   .   |   .    |    .    |    .
e|-----------0---7-12-10-9-------------0-|---------5-7-9-10-10p9-7-----------0-|
B|---------0---8-----------12-10---------|---5-7-8-----------------10-10p8-7---|
G|-------0-----------------------12-11---|-7-----------------------------------|
D|-----2---------------------------------|-------------------------------------|
A|---2-----------------------------------|-0=======---------0=========0========|
E|-3=======------------------------------|-------------------------------------|

39 |   .   |   .   |   .   |   .     |   .   |   .   |   .   |   .
e|---------5---4---7---5---5---4---|-7---5-----------5-------5-7-9--10|
B|---------7---6---7-------7---6---|-7---------5-7--8--8-7--8---------|
G|-7=======------------------------|---------7------------------------|
D|-0-------0-------0-------0-------|-0===----0===----0===----0===-----|
A|-----0-------0-------0-------0---|-----0===----0===----0===----0====|
E|---------------------------------|----------------------------------|
                   sf                sf

41 |   .   |   .   |   .   |   .    |   .   |    .     |     .      |     .
e|-12======3---2---5--p3---3---2--|-5--p3---5----------9--10-12--10-9----------|
B|---------5---4---5-------5---4--|-5----------9-10--12----------------12-10--8|
G|--------------------------------|--------------------------------------------|
D|--------------------------------|--------------------------------------------|
A|-----0---4---0---4---0---4---0--|-4===0===4====0=====------0======------0====|
E|-9------------------------------|--------------------9=====-------9=====-----|
                   sf               sf

43 |   .   |   .   |   .   |   .     |   .   |   .   |   .   |   .
e|---------5---4---7--p5---5---4---|-7--p5-----------5-------5-7-9--10|
B|-7=======7---6---7-------7---6---|-7---------5-7--8--8-7--8---------|
G|---------------------------------|---------7------------------------|
D|-0-------0-------0-------0-------|-0===----0===----0===----0===-----|
A|-----0-------0-------0-------0---|-----0===----0===----0===----0====|
E|---------------------------------|----------------------------------|
                   sf                sf

45 |   .   |   .   |   .   |   .    |   .   |    .     |     .      |     .
e|-12======3---2---5--p3---3---2--|-5--p3---5----------9--10-12--10-9----------|
B|---------5---4---5-------5---4--|-5----------9-10--12----------------12-10--8|
G|--------------------------------|--------------------------------------------|
D|--------------------------------|--------------------------------------------|
A|-----0---4---0---4---0---4---0--|-4===0===4====0=====------0======------0====|
E|-9------------------------------|--------------------9=====-------9=====-----|
                   sf               sf

47 |   .   |   .   |   .   |   .     |   .   |   .   |   .   |   .
e|-----5===4===5===----5===7===5===|-----12==11==12==----------------|
B|-7===7===6===7===7===7===8===7===|-8===------------11==10==11==10==|
G|-7===------------7===------------|-9===12==11==12==12==12==12==12==|
D|-0---0---0---0---0---0---0---0---|---------------------------------|
A|---0---0---0---0---0---0---0---0-|---0---0---0---0---0---0---0---0-|
E|---------------------------------|-9---9---9---9---9---9---9---9---|
                                                     

49 |   .   |   .   |   .   |   .     |   .   |   .   |   .   |   .
e|-10==5===4===5===----5===7===5===|-----12==11==12==----------------|
B|-----7===6===7===7===7===8===7===|-8===------------11==10==11==10==|
G|-11==------------7===------------|-9===12==11==12==12==12==12==12==|
D|-0---0---0---0---0---0---0---0---|---------------------------------|
A|---0---0---0---0---0---0---0---0-|---0---0---0---0---0---0---0---0-|
E|---------------------------------|-9---9---9---9---9---9---9---9---|
                                                     

51 |    .   |   .   |   .   |   .     |   .   |   .   |   .   |   .
e|-10-------------2---2---2---2---2-|---2-2-2---2---2---2---2---2---2-|
B|----7-7-7-7-7---3---3---3---3---3-|---3-3-3---3---3---3---3---3---3-|
G|-11-7-7-7-7-7---------------------|---------------------------------|
D|-0============0===----------------|-------------0===----------------|
A|--------------------------0===2===|---------0===------------0===2===|
E|------------------2===3===--------|-4=======--------2===3===--------|
                                      sf

53 |   .   |   .   |   .   |   .     |   .   |   .   |   .   |   .
e|---2-2-2---2---2---2---2---2---2-|---2-2-2---2---2---2-2-2---2---2-|
B|---3-3-3---3---3---3---3---3---3-|---3-3-3---3---3---4-4-4---4---4-|
G|---------------------------------|---------------------------------|
D|-------------0===----------------|---------------------------------|
A|---------0===------------0===2===|-3=======2===0===3=======2===0===|
E|-4=======--------2===3===--------|---------------------------------|
   sf                                sf              sf

55 |   .   |   .   |   .   |   .     |   .   |   .   |   .   |   .
e|---3-3-3---3---3---0-0-0---0---0-|---2---2---2---2---2---2---2---2-|
B|---5-5-5---5---5---2-2-2---2---2-|---3---3---3---3---3---3---3---3-|
G|---------------------------------|---------------------------------|
D|---------------------------------|---------0===4===--------0===----|
A|-----------------1=======0===----|-----4===--------1===2===--------|
E|-3=======2===0===------------3===|-2===------------------------2===|
   sf              sf

57 |   .   |   .   |   .   |   .     |   .   |   .   |   .   |   .
e|---0---0---0---0---2---2---0---0-|-----------------0=======5=======|
B|---3---3---3---3---3---3---2---2-|-3=======--------2=======4=======|
G|---------------------2===----2===|-------------------------5=======|
D|---------------------------------|-0---0---0---0---0---0---0---0---|
A|-----------------0===----0===----|---------------------------------|
E|-3===2===3===0===----------------|---------------------------------|
                                     p                       sf

59 |   .   |   .   |   .   |   .     |   .   |   .   |   .   |   .
e|---------3=======2---3p2-0---2p0-|-----------------0---4---5=======|
B|-3=======2=======3-------2-------|-3=======----3---2-------4=======|
G|-4=======3=======2-------0-------|-------------------------5=======|
D|-0---0---0---0---0---0---0---0---|-4-----------0---0---0---0---0---|
A|---------------------------------|-5---5---5-----------------------|
E|---------------------------------|---------------------------------|
                                                             sf

61 |   .   |   .   |   .   |   .     |   .   |   .   |   .   |   .
e|-----2---3=======2---3p2-0---2p0-|-----------------2---3p2-0---2p0-|
B|-3-------2=======3-------2-------|-3=======--------3-------2-------|
G|-4-------3=======2-------0-------|-----------------2-------0-------|
D|-0---0---0---0---0---0---0---0---|-4---------------0=======--------|
A|---------------------------------|-5---5---5---5-----------0=======|
E|---------------------------------|---------------------------------|
           sf

63 |   .   |   .   |   .   |   .     |   .   |   .   |   .   |   .
e|-----------------2---3p2-0---2p0-|---------------------2p0-3p2-5p3-|
B|-3=======--------3-------2-------|-3=======----2h3-5p3-------------|
G|-----2---2---2---2-------0-------|---------------------------------|
D|-4---------------0=======--------|-4=======------------------------|
A|-5-----------------------0=======|-5=======------------------------|
E|---------------------------------|---------------------------------|
                                                 pp

65 |   .   |   .   |   .   |   .     |   .   |   .   |   .   |   .
e|-1--h2---------------3p2-5p3-7p5-|-2--h3---------------2h3-5p3-8p7-|
B|---------1===2h3-5p3-------------|---------0===2h3-5p3-------------|
G|---------2===--------------------|---------0=======----------------|
D|---------0=======----------------|---------0=======----------------|
A|---------------------------------|---------------------------------|
E|---------------------------------|---------------------------------|

                                                   Pause Pause
67 |   .   |   .   |   .   |   .     |   .   |   .   |   .
e|-------------8p7-------------8p7-|-----8p7-----8p7---------|
B|-9--s10----------9--s10----------|-9s10----9s10----9--s10--|
G|---------------------------------|-------------------------|
D|---------0=======--------0=======|-0=======0=======0=======|
A|---------9=======--------9=======|-9=======9=======9=======|
E|---------------------------------|-------------------------|


[V. Allegro vivace]
1    H.           S S S S    S S S S S S S S S S S S S S S S
e|-----------------8---7-|----5---3---2---0-----------------|
B|-----------------------|--------------------3---1---0-----|
G|---------------5---4---|--2---0-------------------------2-|
D|-----------------------|----------4---2---0---------------|
A|-----------------------|----------------------3---2---0---|
E|-----------------------|----------------------------------|

  3 Q    Q    Q    Q       Q    E.  S Q    Q         E.  S E.  S Q    Q
e|----------------------|--7----5---3-2----0----|--------------------------|
B|----------------------|--8----7---5-3----1----|--5g3---2-3---5-3---------|
G|--0-------------------|--0----0-----0----0----|----4---3-4---5-4----4----|
D|--0----0----0----0----|-----------------------|----5-----5-----5----5----|
A|--2----2----2----2----|-----------------------|--------------------------|
E|--3----3----3----3----|-----------------------|--------------------------|

  6   Q    E.  S Q    Q       E.  S E.  S Q    E.  S    E.  S E.  S E.  S E.  S
e|--2g3----2---0-----------|-------------------------|--------0---2-3---5-7---5-|
B|---------------3----2----|--0-----0---2-0--------3-|--2---3-2---3-5---7-8---7-|
G|----4----4-----4----3----|------3------------------|--2---4-------------------|
D|-------------------------|--0-----0-----0----0-----|--------------------------|
A|-------------------------|--2-----2-----2----2-----|--0-----0-----0-----0-----|
E|----0----0-----2----2----|-------------------------|--------------------------|

  9 E  E  E  E  E  E  E  E     E  E  E  E  E  E  E  E
e|--5--7-----5--3--5-----3--|--2--3-----2--0--2-----0--|
B|--7--8-----7--5--7-----5--|--3--5-----3--2--3-----2--|
G|--------------0-----0-----|--------------------------|
D|--0-----0-----------------|--------------------------|
A|--------------------------|--0-----0-----0-----0-----|
E|--------------------------|--------------------------|

  11 E  E  E  E  E  E  E  E     E  E  E  E  E  E  E  E     Q    Q    Q    Q
e|------0--------------------|--------------------------|----------------------|
B|---3--1-----3--1--3-----1--|--0--1-----0-----0--------|----------------------|
G|------------4--2--4-----2--|--0--2-----0--2--------2--|--0-------------------|
D|---0-----0-----0-----0-----|--0-----0-----0--------0--|--0----0----0----0----|
A|---------------------------|--------------------------|--2----2----2----2----|
E|---------------------------|--------------2-----2-----|--3----3----3----3----|

  14 Q    E.  S Q    Q         E.  S E.  S Q    Q         Q    E.  S Q    Q
e|---7----5---3-2----0----|--------------------------|--2g3----2---0-----------|
B|---8----7---5-3----1----|--5g3---2-3---5-3---------|---------------3----2----|
G|---0----0-----0----0----|----4---3-4---5-4----4----|----4----4-----4----3----|
D|------------------------|----5-----5-----5----5----|-------------------------|
A|------------------------|--------------------------|-------------------------|
E|------------------------|--------------------------|----0----0-----2----2----|

  17 E.  S E.  S Q    E.  S    E.  S E.  S E.  S E.  S
e|--------------------------|--------0---2-3---5-7---5-|
B|---0-----0---2-0--------3-|--2---3-2---3-5---7-8---7-|
G|-------3------------------|--2---4-------------------|
D|---0-----0-----0----0-----|--------------------------|
A|---2-----2-----2----2-----|--0-----0-----0-----0-----|
E|--------------------------|--------------------------|

  19 E  S  S S  S S  S E  S  S S  S S  S    E  S  S S  S S  S E  S  S S  S S  S
e|---5--7p-5-7p-5-7p-5-3--5p-3-5p-3-5p-3-|--2--3p-2-3p-2-3p-2-0--2p-0-2p-0-2p-0-|
B|---7--7----7----7----5--5----5----5----|--3--3----3----3----2--2----2----2----|
G|---------------------0-------0---------|--------------------------------------|
D|---0-------0---------------------------|--------------------------------------|
A|---------------------------------------|--0-------0---------0-------0---------|
E|---------------------------------------|--------------------------------------|

  21 E.  S E.  S E.  S E.  S    E  S  S  Q    E  S  S  Q
e|---------------------------|--5--7p-5--8----5--7p-5--8----|
B|---3-----------------------|--7--7----10----7--7----10----|
G|---------------------------|------------------------------|
D|---0---0-0---0-0---0-0---0-|--0--------0----0--------0----|
A|---------------------------|------------------------------|
E|---------------------------|------------------------------|

  23 E  S  S  Q    E  S  S  Q       E  S  S  Q    E  S  S  Q
e|---7--8p-7-10----7--8p-7-10----|--5--7p-5--8----5--7p-5--8----|
B|---8--8----12----8--8----12----|--7--7----10----7--7----10----|
G|-------------------------------|------------------------------|
D|---0--------0----0--------0----|--0--------0----0--------0----|
A|-------------------------------|------------------------------|
E|-------------------------------|------------------------------|

  25 E  S  S  Q    E  S  S  Q       E  S  S  Q    E  S  S  Q
e|---7--8p-7-10----7--8p-7-10----|--5--7p-5--8----5--7p-5--8----|
B|---8--8----12----8--8----12----|--7--7----10----7--7----10----|
G|-------------------------------|------------------------------|
D|---0--------0----0--------0----|--0--------0----0--------0----|
A|-------------------------------|------------------------------|
E|-------------------------------|------------------------------|

  27 Q    Q    Q    Q       Q    E.  S Q    Q         E.  S E.  S Q    Q
e|-----------------------|--7----5---3-2----0----|--------------------------|
B|-----------------------|--8----7---5-3----1----|--5g3---2-3---5-3---------|
G|-----------------------|--0----0-----0----0----|----4---3-4---5-4----4----|
D|---0----0----0----0----|-----------------------|----5-----5-----5----5----|
A|---2----2----2----2----|-----------------------|--------------------------|
E|---3----3----3----3----|-----------------------|--------------------------|

  30   Q    E.  S Q    Q       E.  S E.  S Q    E.  S    E.  S E.  S E.  S E.  S
e|---2g3----2---0-----------|-------------------------|--------0---2-3---5-7---5-|
B|----------------3----2----|--0-----0---2-0--------3-|--2---3-2---3-5---7-8---7-|
G|-----4----4-----4----3----|------3------------------|--2---4-------------------|
D|--------------------------|--0-----0-----0----0-----|--------------------------|
A|--------------------------|--2-----2-----2----2-----|--0-----0-----0-----0-----|
E|-----0----0-----2----2----|-------------------------|--------------------------|

  33 E  S  S S  S S  S E  S  S S  S S  S    E  S  S S  S S  S E  S  S S  S S  S
e|---5--7p-5-7p-5-7p-5-3--5p-3-5p-3-5p-3-|--2--3p-2-3p-2-3p-2-0--2p-0-2p-0-2p-0-|
B|---7--7----7----7----5--5----5----5----|--3--3----3----3----2--2----2----2----|
G|---------------------0-------0---------|--------------------------------------|
D|---0-------0---------------------------|--------------------------------------|
A|---------------------------------------|--0-------0---------0-------0---------|
E|---------------------------------------|--------------------------------------|

  35 E  E  E  E  E  E  E  E     E  E  E  E  E  E  E  E     Q    Q    Q    Q
e|------0--------------------|--------------------------|----------------------|
B|---3--1-----3--1--3-----1--|--0--1-----0-----0--------|----------------------|
G|------------4--2--4-----2--|--0--2-----0--2--------2--|--0-------------------|
D|---0-----0-----0-----0-----|--0-----0-----0--------0--|--0----0----0----0----|
A|---------------------------|--------------------------|--2----2----2----2----|
E|---------------------------|--------------2-----2-----|--3----3----3----3----|

  38 Q    E.  S Q    Q         E.  S E.  S Q    Q         Q    E.  S Q    Q
e|---7----5---3-2----0----|--------------------------|--2g3----2---0-----------|
B|---8----7---5-3----1----|--5g3---2-3---5-3---------|---------------3----2----|
G|---0----0-----0----0----|----4---3-4---5-4----4----|----4----4-----4----3----|
D|------------------------|----5-----5-----5----5----|-------------------------|
A|------------------------|--------------------------|-------------------------|
E|------------------------|--------------------------|----0----0-----2----2----|

  41 E.  S E.  S Q    E.  S    E.  S E.  S E.  S E.  S    Q     Q    Q     Q
e|--------------------------|--------0---2-3---5-7---5-|--5----10----3----12----|
B|---0-----0---2-0--------3-|--2---3-2---3-5---7-8---7-|--7----------5----------|
G|-------3------------------|--2---4-------------------|-------------0-----0----|
D|---0-----0-----0----0-----|--------------------------|--0-----0---------------|
A|---2-----2-----2----2-----|--0-----0-----0-----0-----|------------------------|
E|--------------------------|--------------------------|------------------------|

  44 E  E  E   E   S  S S  S  S  S S S    E.  S E.  S E.  S E.  S
e|-----5-----10--10p-9-7--------------|---------------------------|
B|---7--------------------10-10p-8-7---|--------------------------|
G|---7-------------------------------9-|--7-----------------------|
D|---0-----0---------------------------|--0---0-0---0-0---0-0---0-|
A|-----------------0----------0--------|--------------------------|
E|-------------------------------------|--------------------------|

  46 E  S  S  Q    E  S  S  Q       E  S  S  Q    E  S  S  Q
e|---5--7p-5--8----5--7p-5--8----|--7--8p-7-10----7--8p-7-10----|
B|---7--7----10----7--7----10----|--8--8----12----8--8----12----|
G|-------------------------------|------------------------------|
D|---0--------0----0--------0----|--0--------0----0--------0----|
A|-------------------------------|------------------------------|
E|-------------------------------|------------------------------|

  48 E  S  S  Q    E  S  S  Q       E  S  S  Q    E  S  S  Q
e|---5--7p-5--8----5--7p-5--8----|--7--8p-7-10----7--8p-7-10----|
B|---7--7----10----7--7----10----|--8--8----12----8--8----12----|
G|-------------------------------|------------------------------|
D|---0--------0----0--------0----|--0--------0----0--------0----|
A|-------------------------------|------------------------------|
E|-------------------------------|------------------------------|

  50 E  S  S  Q    E  S  S  Q       E  Q    E  E  E  E  E
e|---5--7p-5--8----5--7p-5--8----|-----3----2--0-----------|
B|---7--7----10----7--7----10----|----------------3--1--0--|
G|-------------------------------|-----4----2--0-----------|
D|---0--------0----0--------0----|----------------4--2--0--|
A|-------------------------------|-------------------------|
E|-------------------------------|--3--L-------------------|

  52 E  E  E  E  E  E  E  E     E   Q    S S S S S S S S S S
e|------7-----5--3--2--0-----|-----10------8---7---5---3---2-|
B|---0--8-----7--5--3--1--3--|--3---0------------------------|
G|------------------------4--|--4----------------------------|
D|---0-----------------------|-----------7---5---4---2---0---|
A|---------------------------|-------------------------------|
E|---3-----------------------|--3----------------------------|

  54 E  E  E  E  E  E  E  E     E  E  E  E  E  E  E  E
e|------0-----2-----3-----4--|-----5-----5-----6-----6--|
B|------1-----1-----3-----6--|-----5-----5-----8-----8--|
G|---------------------------|-----------------6-----6--|
D|---------------------0-----|--------------------------|
A|---3-----0-----2-----------|--------------7-----7-----|
E|---------------------------|--8-----8-----------------|

  56 E  E  E  E  E  E  E  E    E  Q    E  E  E  E  E     E  E  E  E  E  E  E  E
e|------7-----7-----5-----5--|----3----2--0-----------|-----7-----5--3--2--0-----|
B|------8-----8-----7-----7--|---------------3--1--0--|--0--8-----7--5--3--1--3--|
G|------7-----7-----7-----7--|----4----2--0-----------|-----------------------4--|
D|---0-----0-----0-----0-----|---------------4--2--0--|--0-----------------------|
A|---------------------------|------------------------|--------------------------|
E|---------------------------|-3--L-------------------|--3-----------------------|

  59 E   Q    S S S S S S S S S S    E  E  E  E  E  E  E  E
e|------10------8---7---5---3---2-|-----0-----2-----3-----4--|
B|---3---0------------------------|-----1-----1-----3-----6--|
G|---4----------------------------|--------------------------|
D|------------7---5---4---2---0---|--------------------0-----|
A|--------------------------------|--3-----0-----2-----------|
E|---3----------------------------|--------------------------|

  61 E  E  E  E  E  E  E  E     S S S S S S S S S S S S S S S S
e|------5-----5-----6-----6--|--------7-------7-------7-------7-|
B|------5-----5-----8-----8--|------8-------8-------8-------8---|
G|------------------6-----6--|----7-------7-------7-------7-----|
D|---------------------------|--0-------0-------0-------0-------|
A|---------------7-----7-----|----------------------------------|
E|---8-----8-----------------|----------------------------------|

  63 S S S S S S S S S S S S S S S S    S S S S S S S S S S S S S S S S
e|---------5-------5-------5-------5-|----------------------------------|
B|-------8-------8-------7-------7---|------------------0-------3-----3-|
G|-----7-------7-------7-------7-----|--0-------0-----0-------4-----4---|
D|---0-------0-------0-------0-------|--------0-----0-------5-----5-----|
A|-----------------------------------|------2-----2-------5-------------|
E|-----------------------------------|----3-----------------------------|

  65  S S S S E  Q    S S S S S S    S S S S S S S S S S S S S  S S S
e|---3-------7---------5---3---2-|--0---------------0-------3--------|
B|---------8---------------------|----------1-----1-------5--------8-|
G|-------7-----------------------|--------0-----0-------5--------9---|
D|-----9--------5----4---2---0---|------2-----2-------5-------10-----|
A|-------------------------------|----3------------------------------|
E|-------------------------------|-----------------------------------|

  67 S S S S  E   Q    S  S S S S S    S S S S S S S S S S S S S S S S
e|---8-----8-12----------10---8---7-|----------------------------------|
B|-------8--------------------------|------0-------0-------0-------0---|
G|-----9----------------------------|--------5-------5-------5-------5-|
D|---------------10----9----7---5---|----4-------4-------4-------4-----|
A|----------------------------------|--5-------6-------5-------6-------|
E|----------------------------------|----------------------------------|

  69 E  S S S S S S S S S S S S S S    S S S S S S S S S S S S S S S S
e|---------0---2-0-3-2-5---4-2-5-3-7-|--5-8---7---5---3---2---0---------|
B|------2---3-----------6-----------|------8---7---5---3---1---0-3---1-|
G|----------------------------------|------------------------------2---|
D|---0--------------0---------------|--0-------0-------0-------0-------|
A|----------------------------------|----------------------------------|
E|----------------------------------|----------------------------------|

  71 S S S S S S S S S S S S S S S S    S S S S S S S S S S S S S S S S
e|-----------------------------------|--3-------7-7-7-7---7---5---3---2-|
B|---0---------------0-------3-----3-|--------8-------------------------|
G|---0-------0-----0-------4-----4---|------7---------------------------|
D|---------0-----0-------5-----5-----|----9-------------5---4---2---0---|
A|-------2-----2-------5-------------|----------------------------------|
E|-----3-----------------------------|----------------------------------|

  73 S S S S S S S S S S S S S  S S S    S S S S  S  S  S  S  S  S S  S S S S S
e|---0---------------0-------3--------|--8-----8-12-12-12-12----12---10---8---7-|
B|-----------1-----1-------5--------8-|------8----------------------------------|
G|---------0-----0-------5--------9---|----9------------------------------------|
D|-------2-----2-------5-------10-----|----------------------10----9----7---5---|
A|-----3------------------------------|-----------------------------------------|
E|------------------------------------|-----------------------------------------|

  75 S S S S S S S S S S S S S S S S    E  S S S S S S S S S S S S S S
e|-----------------------------------|-------0---2-0-3-2-5---4-2-5-3-7-|
B|-------0-------0-------0-------0---|-----2---3-----------6-----------|
G|---------5-------5-------5-------5-|---------------------------------|
D|-----4-------4-------4-------4-----|--0--------------0---------------|
A|---5-------6-------5-------6-------|---------------------------------|
E|-----------------------------------|---------------------------------|

  77 S S S S S S S S S S S S S S S S    Q    S S S S S S S S S S S S
e|---5-8---7---5---3---2---0---------|-------------------------2-----|
B|-------8---7---5---3---1---0-3---1-|--0------2-------3---------1---|
G|-------------------------------2---|--0--------3-------3-----------|
D|---0-------0-------0-------0-------|-------5-----5-4-----4-0-----0-|
A|-----------------------------------|-------------------------------|
E|-----------------------------------|--3----------------------------|

  79 S S S S S S S S S S S S S S S S    S S S S S S S S S S S S S S S S
e|-----3-----------------------2-----|----3-------3-------0-------------|
B|-------0-----2-------3---------1---|------0-------1-------0-----4-----|
G|---0-----0-----3-------3-----------|--0-----0-2-----2-0-----0-----4---|
D|-----------5-----5-4-----4-0-----0-|--------------------------4-----4-|
A|-----------------------------------|----------------------------------|
E|-----------------------------------|----------------------------------|

  81 S S S S S S S S S S S S S S S S    S S S S S S S S S S S S S S S S
e|-----0-----------------------------|----------------0---1---3---5---7-|
B|-------0-----3-------1-------0-----|----1-0-1---3---------------------|
G|---0-----0-----2-------0-------0---|----------------------0---2---4---|
D|-----------3-----3-2-----2-0-----0-|----------0---2---3---------------|
A|-----------------------------------|--3-------------------------------|
E|-----------------------------------|----------------------------------|

  83 S S S S S S S  S  H           E  S S S S S S S S S S E  E
e|-----8---7---8---10-12--------|-----------------3-----3-6-----|
B|------------------------------|---------5-----5-----5---------|
G|---5---4---5---7-----9--------|-------3-----3-----3-----------|
D|------------------------------|-----5-----5-------------------|
A|------------------------------|--4-------------------------4--|
E|------------------------------|-------------------------------|

  85 E  S S S S S S S S S S E  E     E  S S S S S S S S S S E  E
e|------------------3-----3-6-----|-----------------3-----3-6-----|
B|----------5-----5-----5---------|---------4-----4-----4---------|
G|--------3-----3-----3-----------|-------3-----3-----3-----------|
D|------5-----5-------------------|-----5-----5-------------------|
A|---5-------------------------5--|--6-------------------------4--|
E|--------------------------------|-------------------------------|

  87 E  S S S S S S E  S S S S S S    E  S S S S S S S S S S S S S S
e|---------------------------------|---------------------------------|
B|---3----0---1---2-3----0---1---2-|--3----0---1---2---3---4---5---6-|
G|---4--0---2---3---4--0---2---3---|--4--0---2---3---4---5---6---7---|
D|---0--------------0--------------|--0------------------------------|
A|---------------------------------|---------------------------------|
E|---------------------------------|---------------------------------|

  89 S S S S  S S  S  S S S S S  S S  S S
e|------------------------6---7----8----9-|
B|-----7---8----9----10-8---9---10---11---|
G|---8---9---10---11----------------------|
D|----------------------------------------|
A|----------------------------------------|
E|----------------------------------------|

  90 S S S  S  S S S  S  S S S  S  S S S  S     E  S S S S S S S S S S S  S S S
e|--10-----10-12-----12-14-----14-15-----15-|-----------------------------------|
B|-------0---------0---------0---------0----|---0--7-6-5------------------------|
G|------------------------------------------|--12--------8-7-6-5----------------|
D|-----0---------0---------0---------0------|---0----------------9-8-7-6--------|
A|------------------------------------------|--10------------------------10-9-7-|
E|------------------------------------------|-----------------------------------|

      |--3-|     |--3-|
92 E  S  S S  E  S  S S  Q     Q       Q    Q    Q    Q

e|-----------7-10-------7-10----12----|-------7---------2----|
B|--------10---------10---------11----|-------8---------3----|
G|------7----------7------------12----|-------7---------2----|
D|---0--------------------------11----|--0---------0---------|
A|------------------------------------|----------------------|
E|------------------------------------|----------------------|

  94 E  S S S S S S S S S S S S S S    S S S S S S S S S S S S S S S S
e|---3------------------------------|----------------------------------|
B|---0------------0---1-----------3-|----0-----------0---1-----------3-|
G|---0----0---2-----------1---2-----|--------0---2-----------1---2-----|
D|------------------------------0---|------------------------------0---|
A|----------0---2---3-------0-------|--2-------0---2---3-------0-------|
E|---3--3---------------4-----------|------3---------------4-----------|

  96 S S S S S S S S S S S S S S S S    S S S S S S S S S S S S S S S S
e|-----------------------------0---2-|----3---5---7-------3-------0-----|
B|-----0-----------0---1---3---------|----------------7-------4-------0-|
G|---------0---2---------------------|--0---2---4-------0---------------|
D|-----------------------0---2---4---|--------------4-------1---2-------|
A|---2-------0---2---3---------------|------------------------------2---|
E|-------3---------------------------|----------------------------------|

  98 Q    Q    Q    Q       E  S S S S S S S S S S S S E
e|--------0----3----2----|--3----------------0------------|
B|---1----1----0----3----|--0----0---1---3-------0---1-3--|
G|--------0----0----2----|--0--------------------------2--|
D|-------------0----0----|--------------------------------|
A|---3----3--------------|---------0---2---3-------0------|
E|-----------------------|--3--3---------------4-------2--|

  100 E  S S S S S S S S S S S S E     E  S S S S S S S S S S S S S S
e|---------------------0------------|-------------------0---2---3---5-|
B|----0----0---1---3-------0---1-3--|--0----0---1---3-----------------|
G|----0--------------------------2--|--0------------------------------|
D|----------------------------------|---------------------0---2---4---|
A|-----------0---2---3-------0------|---------0---2---3---------------|
E|----3--3---------------4-------2--|--3--3---------------------------|

  102 S S S S S  S S S S S S S S S S S    Q    S S S S S S S S S S S S
e|------7---8---10---8---7---5---3---2-|--0----------5-------3-------2-|
B|-------------------------------------|-----------3-------3-------3---|
G|----0----------------0---------------|---------5-------4-------2-----|
D|--------7---9----7-------4---2---0---|---------------0-------0-------|
A|-------------------------------------|--3----3-----------------------|
E|-------------------------------------|-------------------------------|

  104 E   S  S  E   E  E   S  S  E  E     E   S  S  E   E  E   S  S  E  E
e|----3--10-10-10---8--7--10-10-10--2--|--3--10-10-10---8--7--10-10-10--2--|
B|----0------------10--8------------1--|--0------------10--8------------1--|
G|----0------------11--0------------2--|--0----------------0------------2--|
D|------------------0---------------0--|----------------0---------------0--|
A|-------------------------------------|-----------------------------------|
E|----3--------------------------------|--3--------------------------------|

                                            |-3-|            |-3-|
  106 S S S S S S S S S S S S S S S S    E  S S S  E   E  E  S S S  E  E
e|--------3-------3-------3---------2-|--3------7-10---8--7------7-10--2--|
B|------0---0---0---0-------------3---|-------8-------10--8----8-------1--|
G|----------------------2---2---2-----|-----7-------------0--7---------2--|
D|------------2---------------0-------|----------------0---------------0--|
A|--------------------3---------------|-----------------------------------|
E|----3-------------------------------|--3--------------------------------|

         |-3-|            |-3-|
  108 E  S S S  E   E  E  S S S  E  E     S S S S S S S S S S S S S S S S
e|----3------7-10---8--7------7-10--2--|------3-------3-------3---------2-|
B|---------8-------10--8----8-------1--|----0---0---0---0-------------3---|
G|-------7-------------0--7---------2--|--------------------2---2---2-----|
D|------------------0---------------0--|----------2---------------0-------|
A|-------------------------------------|------------------3---------------|
E|----3--------------------------------|--3-------------------------------|

  110 E  S S S S S S S S S S S S S S    S S S S S S S S S S S  S S  S  S  S
e|----3------------------------0---2-|----3---3---5---7---8---10---12----14-|
B|----0------------0---1---3---------|--------------------------------------|
G|----0----0---2---------------------|--0---0---2---4---5---7----9----11----|
D|-----------------------0---2---4---|--------------------------------------|
A|-----------0---2---3---------------|--------------------------------------|
E|----3--3---------------------------|--------------------------------------|

  112 H         Q       Q
e|---15--------10----|--3----|
B|--------------7----|--0----|
G|---12---------7----|--0----|
D|--------------0----|--0----|
A|-------------------|--2----|
E|-------------------|--3----|



---------------------------------
Duration Legend
---------------------------------
Q       - quarter note
E       - 8th note
S       - 16th note
T       - 32nd note
X       - 64th note
.       - dotted note
|-3-|   - triplet - 3 notes in the time of 2 notes
|--6--| - sextuplet - 6 notes in the time of 4 notes

----------------------------------
Tablature Legend
----------------------------------
>     - accented note
L     - tied note
g     - grace note
h     - hammer on
p     - pull off
NH    - natural harmonic
<12>  - natural harmonic, open string, 12th fret
AH    - artificial harmonic
1<13> - artificial harmonic, left hand 1st fret, right hand points to 13th fret
2<14> - artificial harmonic, left hand 2nd fret, right hand points to 14th fret
3<15> - artificial harmonic, left hand 3rd fret, right hand points to 15th fret
4<16> - artificial harmonic, left hand 4th fret, right hand points to 16th fret

----------------------------------
Dynamics
----------------------------------
p (piano - soft)
pp (pianissimo - very soft)
mf (mezzoforte - medium loud)
f (forte - loud)
sf (sforzando - accented, stressed)
piu mosso (more movement - quicker)
Moderato (at a moderate pace)

            
            
Suggest correction
Creating personal tab
Creating personal tab
You can edit any tab online and save it as your Personal.

You can edit, replace or remove any tab part or add personal notes – all changes will be seen only by you.

Personal tabs can be accessed anytime from any device, even offline.
Learn more »
Give kudos to tab author, rate the tab!
1 2 3 4 5
comments
print report bad tab
guest
You may want to rate the tab now too:
select rating
Wanna post a correction for this tab? Suggest correction