Oops, an error
Loading. Please wait.

Tales Of The Riverbank Tab

9,516 views 30 this week
no commentswrite comment
1 2 3 4 5
excellent!
x 4
add to favorites
launch autoscroll
font size
0
reset
how to read this tab
guitar tuner
Tab Pro tools
  • play this tab
  • loop segment
  • change instrument
  • show fretboard
  • metronome
×
Best way to learn
"Tales Of The Riverbank"
Autoscroll
slow
fast
+/-
esc
set tempo
stop
Contributor
Title: Tales of the Riverbank (Andante in C)
Author: Mauro Giuliani
Genre: Classical
Tabbed by: Pod (Pod42)

This can get tricky to play, so much so it doesn't sound right when playing, but I 
you it is correct, just takes practice and proper finger positioning.
Good luck, have fun!


e|--3--1-|--0---0----1---1---|--3---3----0---0---|----------0---0---|--3--1-0-1---------|
B|-------|-------------------|-------------------|--3---3-----------|-----------3-----0-|
G|-------|----0---0----0---0-|----0---0----0---0-|----0---0---0---0-|-------------0-2---|
D|-------|-----------0---0---|--2---2------------|------------------|--0----------------|
A|-------|--3---3------------|-----------3---3---|--2---2---3---3---|-------------------|
E|-------|-------------------|-------------------|------------------|-------------------|

e|-------------------|-------------------|---------0-1---0---|--0-----------3-1-|
B|--1-----3--0-----0-|--1-----3--0-----0-|--1---3------3---1-|----3-1-0---------|
G|----0---0----0-2---|----0---0----0-2---|----0--------------|----------2-0-----|
D|--2---2----3-------|--2---2----3-------|--2---0------------|------------------|
A|-------------------|-------------------|---------3-2---3---|------------------|
E|-------------------|-------------------|-------------------|--3---------------|

e|--0---0----1---1---|--3---3----0---0---|----------0---0---|--3--1-0-1---------|
B|-------------------|-------------------|--3---3-----------|-----------3-----0-|
G|----0---0----0---0-|----0---0----0---0-|----0---0---0---0-|-------------0-2---|
D|-----------0---0---|--2---2------------|------------------|--0----------------|
A|--3---3------------|-----------3---3---|--2---2---3---3---|-------------------|
E|-------------------|-------------------|------------------|-------------------|

e|-------------------|--------------------|----0---------------|----------------|
B|--1-----2--3-----0-|--1-----2--3-----0--|--1-------3---1---0-|----1-----------|
G|----0---0----0-2---|----0---0----0-2----|-------2------------|-------0--------|
D|--2---2----3-------|--2---2----3--------|--------------2---0-|----------2-----|
A|-------------------|--------------------|--------------------|--3----------3--|
E|-------------------|--------------------|--0----1----3---3---|----------------|


e|--0--|----0-0-0---0---0-|----0-0-0---0---0-|----0-3-1-0---------|--------------0---|
B|-----|--1-------1---0---|--------------0---|--1---------3-1-0---|------0---------3-|
G|-----|--2-------2-------|--2-------2-------|--2---------------2-|--1-2---1---------|
D|-----|--------------2---|--------------2---|------------0-------|------------2-----|
A|-----|------------------|--3-------3-------|--------------------|------------------|
E|-----|------------------|------------------|--------------------|--0-------0-------|

e|----0-0-0---0---0-|----0-0-0---0---0-|------------------|-------------------|
B|--1-------1---0---|--------------0---|----1-------0-----|-------------1-0---|
G|--2-------2-------|--2-------2-------|--2-----2-------1-|----2------------2-|
D|--------------2---|--------------2---|------3---0---2---|------2------------|
A|------------------|--3-------3-------|------------------|--0-----3-0--------|
E|------------------|------------------|------------------|-------------------|

e|--0---------1-0---|------------------|------3-1-0-------|--------0-----0---|
B|----------------3-|--1-----------0-1-|--1-0-------3-1-0-|------1---------3-|
G|--1---------------|--2---------2-----|------------------|----2-------1-----|
D|------------------|--------2---------|--0---------------|--2---------------|
A|--------2---------|----0-3---0-------|------------------|------------------|
E|----0-4---0-------|------------------|------------------|----------0-------|

e|----0-0-0---0---0-|----0-0-0---0---0-|------------------|-----------------|
B|--1-------1---0---|--------------0---|----1-------0-----|-------------0-1-|
G|--2-------2-------|--2-------2-------|--2-----2-------1-|----2------------|
D|--------------2---|--------------2---|------3---0---2---|------2----------|
A|------------------|--3-------3-------|------------------|--0-----3-0------|
E|------------------|------------------|------------------|-----------------|

e|------------------|--0---------------|------------------|------------------|
B|--3---3---3---3---|--------------1-0-|----------3---3---|--0-------1-------|
G|----0---0---0---0-|----0---0---0-----|--2---2-----------|--------0-------2-|
D|------3-------3---|------2-----------|----0---0---0---0-|----0---0---0---0-|
A|--2-------2-------|--3-------3-------|------0-------0---|------2-------0---|
E|------------------|------------------|--2-------2-------|--3-------2-------|

e|-------------------|------------------|-------------5---|------------------|-------------3-1-|
B|--0--------1-------|------0-----0-3-1-|-0-3-6-5-3-6---8-|--6-8-5-6-3-5-1-3-|-0---------------|
G|--------0--------2-|----0---2-0-------|-----------------|------------------|---0---0-2-0-----|
D|----0---0----0---0-|------------------|-----------------|------------------|-----4-----------|
A|------2--------0---|------------------|-----------------|------------------|-----------------|
E|--3-------2--------|--3---------------|-----------------|------------------|-----------------|
comments
print report bad tab
I want to post or [tab]
guest
You may want to rate the tab now too:
select rating
Please do not post tabs as comments. Select "correction" instead!