Oops, an error
Loading. Please wait.

Let Me Go Tab

version 1
version 1

Acoustic

Whole song

3,260 views 3 this week
no commentswrite comment
1 2 3 4 5
please rate
add to favorites
launch autoscroll
font size
0
reset
how to read this tab
guitar tuner
Autoscroll
slow
fast
+/-
esc
set tempo
stop
Help us to improve Ultimate-Guitar.com Take our survey!
×
Author
Difficulty
novice
----------------------------------------------------------------------------
                        Maverick Sabre - Let me go
----------------------------------------------------------------------------
Tabbed by: Ren
E-mail: acoustic.ren@ymail.com
Tuning: standard
Capo: N/A

There are only 3 chords in this version of the song which are: 

e|---------|  e|---------|  e|---------| 
B|----7----|  B|----7----|  B|----5----|
G|----7----|  G|----6----|  G|----4----|
D|---------|  D|---------|  D|---------|
A|---------|  A|---------|  A|---------|
E|----7----|  E|----5----|  E|----3----|


Intro:
(Note: All notes played on the "E" string are bass notes)
e|----------------------------------------|
B|-----7-----7-----5-----7-----7-----5----|
G|-----7-----6-----4-----7-----6-----4----|
D|----------------------------------------|
A|----------------------------------------|
E|--7-----5-----3-----7-----5-----3-------|


Verse 1, 2 & 3:
-repeat this four times for each verse. 
-I'm not sure if 'verse 3' is a verse or the bridge so I'm going to call it a verse.
e|------------------------|
B|----7----7----5----7----|
G|----7----6----4----6----|
D|------------------------|
A|------------------------|
E|----7----5----3----5----|


Chorus:
-Same as intro. 
-Continues on from verse after slight pause.
e|----------------------------------------|
B|-----7-----7-----5-----7-----7-----5----|
G|-----7-----6-----4-----7-----6-----4----|
D|----------------------------------------|
A|----------------------------------------|
E|--7-----5-----3-----7-----5-----3-------|

If you can't get the timings give this video a quick listen and you'll pick it up easy as pie:)

http://www.youtube.com/watch?v=m7J1OH_NUWQ
Suggest correction
Give kudos to tab author, rate the tab!
1 2 3 4 5
comments
print report bad tab
guest
You may want to rate the tab now too:
select rating
Please do not post tabs as comments. Select "correction" instead!