Oops, an error
Loading. Please wait.

Palermo Hollywood Tab

40 views 1 this week
no commentswrite comment
1 2 3 4 5
3 more votes to show rating
add to favorites
launch autoscroll
font size
0
reset
how to read this tab
guitar tuner
Autoscroll
slow
fast
+/-
esc
set tempo
stop
Help us to improve Ultimate-Guitar.com Take our survey!
×
El tema se puede tocar con una guitarra rasgueando
 y la otra muteando en quintas, queda muy bien.
cualquier duda: Alanawad@

Intro

e-------------------------------------------------------------
B-------------------------------------------------------------
G------------10-10--9--10-10--9----------10-10--9--10-10--9---
D------------10-10-10--10-10-10-------3--10-10-10--10-10-10---
A----0--3-3-------------------------0-------------------------
E--3------------------------------3---------------------------

(machaca la nota C) Entra bateria


e---------------------------------------
B-------------------1------1-----1------
G-10--9-9-10-9--9-----4------4-----4----
D-10--9-9-10-9--9-------5------5-----5--
A---------------------------------------
E---------------------------------------

e---------------------------------------
B-------------------1------1-----1------
G-10--9-9-10-9--9-----4------4-----4----
D-10--9-9-10-9--9-------5------5-----5--
A---------------------------------------
E---------------------------------------


e---------------------------------------------------
B-10-10-8-------------------10-10-8-----------------
G--9--9-7----7-7------7------9--9-7------7-7-9-7----
D--------10-----7-10-----------------10----------7--
A---------------------------------------------------
E---------------------------------------------------

e-------------------------------------------
B-------------------------------------------
G--9-9-7----7-7-9-7---------------5-4-5-7---
D--------10----------7-9-10-9-7-5-----------
A-------------------------------------------
E-------------------------------------------

C                      F
Si te esmerás un poco más
C                       F
Al sol podés llegar mintiendo
C                          F
Con tu sonrisa de tragos gratis
C           G    F
Y propaganda feliz

         C
e---------------------------------------
B-------------------1------1-----1------
G-10--9-9-10-9--9-----4------4-----4----
D-10--9-9-10-9--9-------5------5-----5--
A---------------------------------------
E---------------------------------------

         F
e---------------------------------------
B-------------------1------1-----1------
G-10--9-9-10-9--9-----4------4-----4----
D-10--9-9-10-9--9-------5------5-----5--
A---------------------------------------
E---------------------------------------


C                         F
Palabras imposibles de develar
C                     F
Para pedir un queso rancio
C             G    F
Te anestesiás y soñás
C              C/A        C/G         F
Perfumados esclavos que velan tu sueño


ESTRIBO

Am     G        F   G
Pero tu escalofrío
Am     G        F   G
No eriza mi piel
Am     G        F
No vendo ni compro
G           F
De tu mercader


Solo de saxo y guitarra

C                      F
Si te esmerás un poco más
C                        F
Al sol podés llegar y tocarlo por mí
C                           F
Tu misterio dejó de ser un mito (ya ves)
C           C/A     C/G      F
No vendo ni compro de tu mercader


ESTRIBO

Am     G        F   G
Pero tu escalofrío
Am     G        F   G
No eriza mi piel
Am     G        F
No vendo ni compro
G           F
De tu mercader

    (X2)

e--------------------------------------
B-------------------1------1-----1-----
G-10--9-9-10-9--9-----4------4-----4---
D-10--9-9-10-9--9-------5------5-----5-
A--------------------------------------
E--------------------------------------

e----------------------------------------
B--------------------1------1-----1------
G--10--9-9-10-9--9-----4------4-----4----
D--10--9-9-10-9--9-------5------5-----5--
A----------------------------------------
E----------------------------------------


e---------------------------------------------------
B-10-10-8-------------------10-10-8-----------------
G--9--9-7----7-7------7------9--9-7------7-7-9-7----
D--------10-----7-10-----------------10----------7--
A---------------------------------------------------
E---------------------------------------------------

e--------------------
B--------------------
G--9-9-7----7-7-9-7-- (termina con el saxo)
D--------10----------
A--------------------
E--------------------


Segundo tema que subo de esta banda, nuevamente dedicado
para tanquito! que gracias a vos conoci esta bandaa.
Salu2!


Vivir solo cuesta vida!
Suggest correction
Give kudos to tab author, rate the tab!
1 2 3 4 5
comments
print report bad tab
guest
You may want to rate the tab now too:
select rating
Wanna post a correction for this tab? Suggest correction