Oops, an error
Loading. Please wait.

Tarnation tab

version 1
version 1

Whole song

3,198 views 3 this week
3 commentsread comments
1 2 3 4 5
x 5
add to favorites
×
Save as Personal and add changes to this tab that will be seen only by you. Learn more ›
×
You can save this tab as Personal to edit and correct it or add notes. All changes will be seen only by you. Learn more »
launch autoscroll
font size
0
reset
how to read this tab
guitar tuner
edit
Autoscroll
slow
fast
+/-
esc
set tempo
stop
Difficulty
intermediate
You've probably heard this off the impulse advert it was on. There wasnt a Tab so i made one.

This is the main riff. It is composed of 5 different chords

-------0-----------0---------------------------------------|
-----1---1-------1---1--------------1---------------1------|
---2-------2---2-------2---------0-----0----------0---0----|
-3-----------3-----------------2----------2-----2-------2--|
----------------------------3-----------------2------------|
-----------------------------------------------------------|


----------------------------------0------------------|
-------1-----------1------------1---1----------------|
-----0---0-------0---0--------2-------2--------------|
---2-------2---2-------2----0-----------0------------|
-0-----------0---------------------------------------|
-----------------------------------------------------|

This is my first tab but i am certain it is 100% correct after playing by ear over and 
again

There is another lead part but its easy enoguh to figure out.
Suggest correction
Creating personal tab
Creating personal tab
You can edit any tab online and save it as your Personal.

You can edit, replace or remove any tab part or add personal notes – all changes will be seen only by you.

Personal tabs can be accessed anytime from any device, even offline.
Learn more »
comments
print report bad tab
3 comments total.
0 reply
john-alan 10 May 21, 2007 10:20 AM

Does anyone know how to play the melody section of this? the part thats over the top of the picking?

0 reply
zakk-rules 10 Jun 04, 2007 03:44 AM

sounds almost perfect, the rhythm is a bit wierd for me but a great tab!

0 reply
frogbucket 10 Jun 15, 2007 10:51 AM

He switches it around a bit if you listen closely. Follow me thusly:

-------0-----------0---------------------------------------|
-----1---1-------1---1--------------1---------------1------|
---2-------2---2-------2---------0-----0----------0---0----|
-3-----------3-----------------2----------2-----2-------2--|
----------------------------3-----------------2------------|
-----------------------------------------------------------|


----------------------------------0------------------|
-------1-----------1------------1---1----------------|
-----0---0-------0---0--------2-------2--------------|
---2-------2---2-------2----0-----------0------------|
-0-----------0---------------------------------------|
-----------------------------------------------------|

THEN
-------0-----------0---------------------------------------|
-----1---1-------1---1--------------1---------------1------|
---2-------2---2-------2---------0-----0----------0---0----|
-3-----------3-----------------2----------2-----2-------2--|
----------------------------3-----------------2------------|
-----------------------------------------------------------|


---------------------0---------------0---------------|
-------1-----------1---1-----------1---1-------------|
-----0---0-------2-------2-------2-------2-----------|
---2-------2---0-----------0---0-----------0---------|
-0---------------------------------------------------|
-----------------------------------------------------|

guest
Wanna post a correction for this tab? Suggest correction