Oops, an error
Loading. Please wait.

Former Punisher Gone Rogue chords

1,523 views 1 this week
3 commentsread comments
1 2 3 4 5
1 last vote to show rating
add to favorites
×
Save as Personal and add changes to this tab that will be seen only by you. Learn more ›
×
You can save this tab as Personal to edit and correct it or add notes. All changes will be seen only by you. Learn more »
launch autoscroll
font size
0
reset
transpose
0
reset
display chords
guitar tuner
edit
Autoscroll
slow
fast
+/-
esc
set tempo
stop
Author
Difficulty
Strumming
There is no strumming pattern for this song yet. and get +5 IQ
http://www.youtube.com/watch?v=ZEPkIglbBMk

This is my first time doing this, so sorryif it's not right. But this way sounds decent. 
am not advanced enough to tab a couple parts (there's a little diddy before the 2nd 
and a sick solo after the 2nd chorus) so hopefully someone can figure that out soon.

Standard tuning (I think)

Verse: Am, C

Once I was there, a lovely commotion
You danced with my flesh, as a sickening garb.
My lips were your lips, my songs were worth saving,
saving your sole, drove off in your car.
But now you're too cool, You found a new boy toy,
A healthy young man, with a sweater and scarf.
Trained tragically with his jedi powers,
while i trudge behind in a dark lonely march.

Am
Come on, come on
C
Why don't you love my like
G
how you loved me
F
when we were young?


Am, C
I trusted you, Spent every moment
Defending your life, from the mobs of naive.
But I was the fool, to fork over fondly
My will to exist, because you're that cool.

            
            
Suggest correction
Creating personal tab
Creating personal tab
You can edit any tab online and save it as your Personal.

You can edit, replace or remove any tab part or add personal notes – all changes will be seen only by you.

Personal tabs can be accessed anytime from any device, even offline.
Learn more »
Give kudos to tab author, rate the tab!
1 2 3 4 5
comments
print report bad tab
3 comments total.
0 reply
Casts 31 Jan 27, 2011 11:55 AM

Here I'll add to your tab.

The first solo thing sounds..
-------------------------------------------------------
----12h13------------------------12h13-----------------
-14------12--14--16--17--19--14-------12--14--16--14--12
-------------------------------------------------------
-------------------------------------------------------
-------------------------------------------------------

The second one sounds kindaa liiikkee
-----------------------------
---------------------------5-
------------5-5-5-7-5-7-5-7--

0 reply
Casts 31 Jan 27, 2011 12:01 PM

Wow it didn't all send forgot to use the tab thing damnit...

------------------------------
----------------------------5-
-------------5-5-5-7-5-7-5-7--
--s57-5-7-5-7-7-7------------- four times
------------------------------
------------------------------continued

-----------------------------------
-6-6-6-5-8-8-8-8-8-8-6-6-6-5-----5-
----------------------------5-5-5--
-----------------------------------
-----------------------------------
-----------------------------------

best part right hereee. first nine vibratos are going to be
softer than the last which rings out a whole measure
--------------------------------
-8~-8~-8~-8~-8~-8~-8~-8~-8~-8~~~
--------------------------------
--------------------------------
--------------------------------
--------------------------------

0 reply
poisonpancake 541 Jun 19, 2011 04:05 PM

It definitely helps you figure it out, but I think the chorus should be something like:

C G
Come on, come on
F C
Why don't you love me
C G
Like how you loved me
F C
When we were young?

Other than that, as the bare bones of it I would say this is a quality transcription. Keep it up! It only gets easier.

guest
You may want to rate the tab now too:
select rating
Wanna post a correction for this tab? Suggest correction