Oops, an error
Loading. Please wait.

Like Their Mom Tab

200 views 1 this week
no commentswrite comment
1 2 3 4 5
please rate
add to favorites
launch autoscroll
font size
0
reset
how to read this tab
guitar tuner
Autoscroll
slow
fast
+/-
esc
set tempo
stop
Help us to improve Ultimate-Guitar.com Take our survey!
×
Author
Difficulty
novice
-------------------------------------------------------------------------------
                "Like Their Mom" - Max Bemis and the Painful Splits
-------------------------------------------------------------------------------


Tabbed by: Cyle.n10
E-mail: kyle_n10@hotmail.com


READ TUNING INSTRUCTIONS!!


Tuning: E A D G A# D#

BEGINNERS READ THIS!!  Okay so to get the A# on the B string go to the 3rd fret (A#) 
on the G string and tune down until it matches up, just like you would normally tune your 
guitar except you'd be at the 3rd fret (A#) instead of the 4th (B).  Now once you have the 
A# you can simply tune the high e string to match with the B string you just tuned down to 
A# to get the D#.  But I find it more accurately by going to the 9th fret (E) on the G string
and tuning down that way to get the D# on the high e.  Other wise there's really no problem 
with just playing the song without the B and E stings.



Intro/Verse's
                   5x                   2x
e|-----0---------0----|------0----|     REPEAT
B|-----0---------0----|------0----|     UNTIL 
G|-----8---------8----|------8----|     CHORUS
D|-----8---------8----|------8----|
A|---6-6---------x----|------x----|
E|-------------8-8----|----6-6----|

Chorus

e|-----0---------0----|
B|-----0---------0----|
G|-----5---------8----|
D|-----8---------8----|
A|-----x-------6-6----|
E|---4-4--------------|

                  OR

e|-----0---------0----|
B|-----0---------0----|
G|-----8---------8----|
D|-----8---------8----|
A|-----6-------6-6----|
E|---4-4--------------|

                OR BOTH!

End on the very first chord and your done! 
This is my first tab so It might be wrong
but hey its darn close!



************************************

| /   slide up
| \   slide down
| h   hammer-on
| p   pull-off
| ~   vibrato
| +   harmonic
| x   Mute note
| b   Bend
| pb  Pre-bend
| br  Bend release
| pbr Pre-bend release
| brb Bend release bend

************************************
Suggest correction
Give kudos to tab author, rate the tab!
1 2 3 4 5
comments
print report bad tab
guest
You may want to rate the tab now too:
select rating
Wanna post a correction for this tab? Suggest correction