Oops, an error
Loading. Please wait.

Be Good tab

version 2
version 2

Whole song

969 views 6 this week
no commentswrite comment
1 2 3 4 5
x 4
add to favorites
×
Save as Personal and add changes to this tab that will be seen only by you. Learn more ›
×
You can save this tab as Personal to edit and correct it or add notes. All changes will be seen only by you. Learn more »
launch autoscroll
font size
0
reset
how to read this tab
guitar tuner
edit
Autoscroll
slow
fast
+/-
esc
set tempo
stop
Originally tabbed by Steve Sco and i've just added lyrics/made a few changes.


- CAPO 1st Fret
- Middle section 'ohhh...' and lyrics, when sung, follow the base note of the corresponding chord
- Strum the chorus
- It is unclear how the third and fourth line of the chorus ends, it sound like: 'drown' and 'your' 

C9:

E|----0-------|
B|----1-------|
G|----0-------|
D|----0-------|
A|----2-------|
E|----x-------|



INTRO:

E|--------------------------------------------------------------------------------------------------|
B|--------------------------------------------------------------------------------------------------|
G|--------------------------------------------------------------------------------------------------|
D|-----2-----2-----2-----2-----2-----2-----2-----2--------------------------------------------------|
A|--3-----3-----2-----2-----0-----0--------------------3-----3-----3-----3-----3-----3-----3-----3--|
E|--------------------------------------3-----3-----1-----1-----1-----1-----1-----1-----1-----1-----|

  
E|--------------------------------------------------------------------------|
B|--------------------------------------------------------------------------|
G|--------------------------------------------------------------------------|
D|-----------------------------------------------------2-----2-----2-----2--|
A|-----7-----7-----5-----5-----3-----3-----3-----3--3-----3-----3-----3-----|
E|--5-----5-----3-----3-----1-----1-----1-----1-----------------------------|


FIRST VERSE:
    
E|--------------------------------------------------------------------------------------------------|
B|--------------------------------------------------------------------------------------------------|
G|--------------------------------------------------------------------------------------------------|
D|-----2-----2-----2-----2-----2-----2-----2-----2--------------------------------------------------|
A|--3-----3-----2-----2-----0-----0--------------------3-----3-----3-----3-----3-----3-----3-----3--|
E|--------------------------------------3-----3-----1-----1-----1-----1-----1-----1-----1-----1-----|
        'To    begin? or to remain? are the questions of the day. Are just beginning now...'

E|--------------------------------------------------------------------------|
B|-----------------------------------------------------1-----1-----1-----1--|
G|--------------------------------------------------------------------------|
D|--------------------------------------------------------------------------|
A|-----7-----7-----5-----5-----3-----3-----3-----3--3-----3-----3-----3-----|
E|--5-----5-----3-----3-----1-----1-----1-----1-----------------------------|
   'There's a spark in your eyes,       what will we find?'


CHORUS:

C     C9     F
Turn it all around
           C     C9    F
Flip that frown upside down,
       C  C9     F
Let it be like a drown
        C   C9     F
Oh be good and be your




SECOND VERSE:



E|-----0-----0-----0-----0-----0-----0-----0-----0------|
B|-----1-----1-----1-----1-----1-----1-----1-----1------|
G|------------------------------------------------------|
D|------------------------------------------------------|
A|--3-----3-----3-----3-----3-----3-----3-----3---------|
E|------------------------------------------------------|


E|-----0-----0-------0-----0--------0-----0---------------------------------------------------------------|
B|-----1-----1-------1-----1--------1-----1-----0-----0------1----1----1----1-----1----1----1----1----1---|
G|----------------------------------------------0-----0------2----2----2----2-----2----2----2----2----2---|
D|--------------------------------------------------------------------------------------------------------|
A|--3-----3-------2-----2--------0-----0-------------------3----3----3----3----3----3----3----3----3------|
E|-------------------------------------------3-----3------------------------------------------------------|
 'Although we're here to save the day, we'll be on our way, light it up and let us go'


E|----------------------------------------------------------|
B|----1----1----------------1----1----1----1----1----1------|
G|----2----2-----0----0-----2----2----2----2----2----2------|
D|---------------0----0-------------------------------------|
A|--0----0----------------3----3----3----3----3----3--------|
E|-------------3----3---------------------------------------|
  'To the starts and to the moon. Start it up, we'll be there soon'


CHORUS:

C     C9     F
Turn it all around
           C     C9    F
Flip that frown upside down,
       C  C9     F
Let it be like a drown
        C   C9     F                  C  C9   F
Oh be good and be your



 
       C   C9     F                 C   C9     F            C
Oh be good and be your




MIDDLE SECTION:
   
E|-----------------------------------------------------|
B|-----------------------------------------------------|
G|-----------------------------------------------------|
D|-----2-----2-----2-----2-----2-----2-----2-----2-----|
A|--3-----3-----3-----3-----3-----3-----3-----3--------|
E|-----------------------------------------------------|


E|--------------------------------------------------------------------------------------------------|
B|--------------------------------------------------------------------------------------------------|
G|--------------------------------------------------------------------------------------------------|
D|-----2-----2-----2-----2-----2-----2-----2-----2--------------------------------------------------|
A|--3-----3-----2-----2-----0-----0--------------------3-----3-----3-----3-----3-----3-----3-----3--|
E|--------------------------------------3-----3-----1-----1-----1-----1-----1-----1-----1-----1-----|
    'ohhhh......Ohhhh........Ohhhhh.....Ohhh....     Oh...................................'


E|------------------------------------------------------------------------------------------|
B|------------------------------------------------------------------------------------------|
G|------------------------------------------------------------------------------------------|
D|-----------------------------------------------------2-----2-----2-----2----2----2----2---|
A|-----7-----7-----5-----5-----3-----3-----3-----3--3-----3-----3-----3-----3----3----3-----|
E|--5-----5-----3-----3-----1-----1-----1-----1---------------------------------------------|
   'Be...      hind         those                 eyes.....'


E|--------------------------------------------------------------------------------------------------|
B|--------------------------------------------------------------------------------------------------|
G|--------------------------------------------------------------------------------------------------|
D|-----2-----2-----2-----2-----2-----2-----2-----2--------------------------------------------------|
A|--3-----3-----2-----2-----0-----0--------------------3-----3-----3-----3-----3-----3-----3-----3--|
E|--------------------------------------3-----3-----1-----1-----1-----1-----1-----1-----1-----1-----|
   'Be...      hind         those        lies...............'


E|--------------------------------------------------------------------------------------------|
B|--------------------------------------------------------1-----1-----1-----1----1----1----1--|
G|--------------------------------------------------------------------------------------------|
D|-----------------------------------------------------2-----2-----2-----2----2----2----2-----|
A|-----7-----7-----5-----5-----3-----3-----3--------------------------------------------------|
E|--5-----5-----3-----3-----1-----1-----1-----------------------------------------------------|
   'Ohhh...     Ohhh...     Ohhhh.........'



CHORUS:

C     C9     F
Turn it all around
           C     C9    F
Flip that frown upside down,
       C  C9     F
Let it be like a drown
        C   C9     F                 C       C9       F
Oh be good and be your              (Ohhh... Ohhh... Ohhh...)



 
       C   C9      F                 C (Finish on one strum)
Oh be good and be your

Suggest correction
Creating personal tab
Creating personal tab
You can edit any tab online and save it as your Personal.

You can edit, replace or remove any tab part or add personal notes – all changes will be seen only by you.

Personal tabs can be accessed anytime from any device, even offline.
Learn more »
comments
print report bad tab
guest
You may want to rate the tab now too:
select rating
Wanna post a correction for this tab? Suggest correction