Oops, an error
Loading. Please wait.

El Cartero Tab

26 views 1 this week
no commentswrite comment
1 2 3 4 5
3 more votes to show rating
add to favorites
launch autoscroll
font size
0
reset
how to read this tab
guitar tuner
×
Best way to learn
"El Cartero"
Autoscroll
slow
fast
+/-
esc
set tempo
stop
A qui va la versión mas simple...
pero si la tocan con sentimietno sale igual de xvr..
q con dos cuerdas...

[ch]Em             [ch]G[/ch]     MIm[/ch]
e:-3-5-7777-5-3-7-5-3-5-0-------|
B:------------------------------|
G:------------------------------|
D:------------------------------|
A:------------------------------|
E:------------------------------|
[ch]Em    SOL[/ch]      [ch]D[/ch]
e:-0-3-7777-5-3-10-10-10-12-10--|
B:------------------------------|
G:------------------------------|
D:------------------------------|
A:------------------------------|
E:------------------------------|
[ch]D      [ch]Em[/ch]              RE[/ch]
e:-8-10-12-12-12-12-10-7-10-5-7-5----|
B:-----------------------------------|
G:-----------------------------------|
D:-----------------------------------|
A:-----------------------------------|
E:-----------------------------------|
[ch]D       [ch]Em        RE[/ch]    MIm[/ch]
e:-3-3-5-777-10-5-5-5-0-3-0-------|
B:--------------------------------|
G:--------------------------------|
D:--------------------------------|
A:--------------------------------|
E:--------------------------------|
====================================================
=================CORO===============================
====================================================
[ch]Em  [ch]G[/ch]               [ch]D[/ch]             MIm[/ch]
e:-7-10-10-10-9-10-|-7-15-14-12-10-12-7-----|
B:-----------------|------------------------|
G:-----------------|------------------------|
D:-----------------|------------------------|
A:-----------------|------------------------|
E:-----------------|------------------------|
[ch]Em  [ch]G[/ch]               [ch]D[/ch]             MIm[/ch]
e:-7-10-10-10-9-10-|-7-12-12-12-12-12-15-12-|
B:-----------------|------------------------|
G:-----------------|------------------------|
D:-----------------|------------------------|
A:-----------------|------------------------|
E:-----------------|------------------------|


ius_castro89@
Suggest correction
Give kudos to tab author, rate the tab!
1 2 3 4 5
comments
print report bad tab
guest
You may want to rate the tab now too:
select rating
Wanna post a correction for this tab? Suggest correction