Oops, an error
Loading. Please wait.

Tu Me Pides Que Te Olvide Tab

version 1
version 1

Whole song

80 views 1 this week
no commentswrite comment
1 2 3 4 5
3 more votes to show rating
add to favorites
launch autoscroll
font size
0
reset
how to read this tab
guitar tuner
×
Best way to learn
"Tu Me Pides Que Te Olvide"
Autoscroll
slow
fast
+/-
esc
set tempo
stop
Tu me pide que te olvide
Max castro

dedicada para beatriz mi secretaria
I) pisas la nota rem y seguidamente relizas el arpegio que esta a continuación


[ch]Dm[/ch]
e:--------1--1----|
b:----3-----------|
G:--------2-------| 
D:----0-----------|
A:----------------|
E:----------------| 

[ch]Dm[/ch]
e:--------1---1h0--1--1----1-|
b:----3----------------------|
G:----------2----------------| 
D:----0------------0-----0---|
A:---------------------------|
E:---------------------------| 

A continuación realizas lo mismos arpegios para las notas

[ch]C [ch]G[/ch] LAm[/ch]


e:--3-5h77-3-33h5-33p0------000----|
b:---------------------3-1-3-------|
G:---------------------------------| 
D:---------------------------------|
A:---------------------------------|
E:---------------------------------| 

e:--3-555-3-2h3-0------------------|
b:----------------333--------------|
G:---------------------------------| 
D:---------------------------------|
A:---------------------------------|
E:---------------------------------| 


e:---00-----00--333-0-55-3---------|
b:-0----333------------------------| (bis)
G:---------------------------------| 
D:---------------------------------|
A:---------------------------------|
E:---------------------------------| 


e:-7h10-7--333-5h7-3-00-55-0-33-0-22--0--|
b:---------------------------------------|
G:---------------------------------------|  (bis)
D:---------------------------------------|
A:---------------------------------------|
E:---------------------------------------| 


[ch]C[/ch]
E-x
B-1
G-3
D-2
A-3
E-x 

lo mismo para la nota sol con el apoyo del dedo meñique para que juegues al realizar el arpegio
Suggest correction
Give kudos to tab author, rate the tab!
1 2 3 4 5
comments
print report bad tab
guest
You may want to rate the tab now too:
select rating
Wanna post a correction for this tab? Suggest correction