Oops, an error
Loading. Please wait.

Tu Me Pides Que Te Olvide Tab

version 2
version 2

Whole song

50 views 1 this week
no commentswrite comment
1 2 3 4 5
3 more votes to show rating
add to favorites
launch autoscroll
font size
0
reset
how to read this tab
guitar tuner
Autoscroll
slow
fast
+/-
esc
set tempo
stop
Help us to improve Ultimate-Guitar.com Take our survey!
×
-----------------------------------------------------------------
Hola soy io de nuevo ?richy? el mismo de la transcripcion de
EL AMOR ES SOLO PALABRA de los DUO ROMANCE

Y ahora aca tienen la de MAX CASTRO ?TU ME PIDES QUE TE OLVIDE?

Saludos para mi gente y banda aia por vitarte
?gloria grande?

A y para la chica de mis sueños solo de mis sueños
--------------------------------------------------------------------
Consultas a? RICHY_161_5@
-----------------------------------------------------
Lima-PERÚ
CLIK EN CALIDAD
 Saludos  2008
*Stars"

Max castro lo mejor:

--------------------------------------------------------------------
CAPO EN EL 3º TRASTE

   Fm
e:---4-4----4-4-----6-6-4-|
B:-6------6-------6-------|
G:---5-5----5-5--5--5-5-5-|  x2
D:-3------3---------------|
A:------------------------|
E:------------------------|

   D#
e:---3-3----3-3-----6-6-3-|
B:-4------4-------4-------|
G:---3-3----3-3--3--3-6-3-| x2
D:------------------------|
A:-6------6---------------|
E:------------------------|

   A#
e:---3-3---3-3----3-------3-3---3-3---3-|
B:-6-----6---------3-3--6-----6---------|
G:---3-3---3-3---3--------3-3---3-3--3--|
D:--------------3-------------------3---|
A:--------------------------------------|
E:-6-----6--------------6-----6---------|

    C9                     Cm
e:---------------------------3-|
B:----3---3---3---3---3-----4--|
G:-----5---5---5---5-------5---|
D:---5--5---5---5---5-----5----|
A:--3--------------------3-----|
E:-----------------------------|

   Cm                      G#
e:-11-13/15-15-15-13-11-13-11-8-|
B:-13-15/16-16-16-15-13-15-13-9-|
   D#                  G#
e:-11-13-13-13-11-8-11-8-6-|
B:-13-15-15-15-13-9-13-9-8-|


NOTAS:

Cuerda mas delgada-----------e B G D A E -----cuerda mas grave
Fm-------------------------  4 6 5 3 3 3
D#-------------------------  3 4 3 5 6 3
A#-------------------------  3 5 3 3 3 5
C9-------------------------  3 3 5 5 3 3
Cm-------------------------  3 4 5 5 3 3

QUE VIVA EL FOLKLORE PERUANO
Suggest correction
Give kudos to tab author, rate the tab!
1 2 3 4 5
comments
print report bad tab
guest
You may want to rate the tab now too:
select rating
Wanna post a correction for this tab? Suggest correction