Oops, an error
Loading. Please wait.

Tu Me Pides Que Te Olvide Tab

version 3
version 3

Whole song

63 views 1 this week
no commentswrite comment
1 2 3 4 5
3 more votes to show rating
add to favorites
launch autoscroll
font size
0
reset
how to read this tab
guitar tuner
×
Best way to learn
"Tu Me Pides Que Te Olvide"
Autoscroll
slow
fast
+/-
esc
set tempo
stop
hola amigos aquí les traigo la corrección de esta hermosa canción,
 solo encontré unos cuantos errores en la entrada que es un juego de acordes
de nivel intermedio. para mayor satisfacción pueden ver el vídeo
 que grabo mi primo en youtube 
espero que lo disfruten a pronto, y no se olviden de ver el vídeo

capo en 3er traste

g.- golpe de hamer o martillo


            [ch]Dm[/ch]
TAB|---1-1---1-1----3-3g1-1-|/TAB
TAB|-3-----3------3---------|/TAB
TAB|---2-----2-----2-----2--|/TAB x2
TAB|-0-----0-----0----0-----|/TAB
TAB|------------------------|/TAB
TAB|------------------------|/TAB

              [ch]C[/ch] 
TAB|---0-0---0-0----3-3g0-0-|/TAB
TAB|-1-----1------1---------|/TAB
TAB|------------------------|/TAB x2
TAB|---2-----2-----2-----2--|/TAB
TAB|-3-----3-----3----3-----|/TAB
TAB|------------------------|/TAB

     [ch]G              [ch]Am    SOL[/ch]                LAm[/ch]
TAB|---0-0---0-0------0-------0-0---0-0------0---------------|/TAB
TAB|-3-----3------3-3---1---3-----3------3-3--1--1---1---1-1-|/TAB
TAB|---------------------------------------------------------|/TAB
TAB|--------------------------------------------2---2---2----|/TAB
TAB|---2-----2-----2----0-----2-----2-----2---0----0---0---0-|/TAB
TAB|-3-----3-----3----------3-----3-----3--------------------|/TAB


Aca viene el punteo inicial

||--11-13-15-15-13-11-11S13-11---------------------------|
||o-13-15-16-16-15-13-13S15-13-13--/13-11----11-13-13-13-|
||-----------------------------13---------13-------13-13-|
||-------------------------------------------------------|
||o------------------------------------------------------|
||-------------------------------------------------------|

|-10-11S13-13-13-11----11h13p11-8-8S6---||------------------||
|-11-13S15-15-15-13-13-13-------9-9S8-8-||-8p6---6-8-8-8---o||
|-------------------13----------------8-||-----8-----8-8----||
|---------------------------------------||------------------||
|---------------------------------------||-----------------o||
|---------------------------------------||------------------||


Luego :

*|-------------6-10-11-10-6-------*|-------6-6-6-6-6h8-6---------|
*|-----6-8-6-8--------------8-8-8-*|---6-8---------------8-4-6-8-|
*|-7-8------------------------8-8-*|-8---------------------5-7-8-|
*|--------------------------------*|-----------------------------|
*|--------------------------------*|-----------------------------|
*|--------------------------------*|-----------------------------|
|----------11-11-11-11-11h13-11----11-------||
|----11-13----------------------13----13-11-||
|-13----------------------------------------||
|-------------------------------------------||
|-------------------------------------------||
|-------------------------------------------||
|-------6-6-6-6-6h8-6----15h18p15-15-11-11-11-11S13-11-----|
|---6-8---------------8--16-------16-13-13-13-13S15-13-13--|
|-8----------------------------------------------------12--|
|----------------------------------------------------------|
|----------------------------------------------------------|
|----------------------------------------------------------|

Despues  el cierre:


|---1-1---0-0-------------|---1-1---0-0-----------------|
|-3-----1-------3---3p0---|-3-----1-------3---3p0-----1-|
|-----------------------2-|-----------------------2-----|
|-0-----3---------0-------|-0-----3---------0-------2---|
|-------------2---------0-|-------------2---------0-----|
|-------------------------|-----------------------------|

|------------------------------|
|-----1-----1-----1-----1------|
|-2-----2-----2-----2-----2----|
|---2-----2-----2-----2--------|
|-0-----0-----0-----0-----0----|
|------------------------------|

Estos son los codos:

|-------------------11-14-15-14-11----||-------------6-10-11-10-6------|
|-------11-13-11-13----------------13-||-----6-8-6-8--------------8----|
|-12-13-------------------------------||-7-8---------------------------|
|-------------------------------------||-------------------------------|
|-------------------------------------||-------------------------------|
|-------------------------------------||-------------------------------|


Esta es la Fuga:

*|-11-13S15-15-15-13-13h15p13-11----|
*|-------------------------------13-|
*|----------------------------------|
*|----------------------------------|
*|----------------------------------|
*|----------------------------------|
|-11-13S15-15-15-13-13h15p13-11----|---6-6-6---6-8-8-8h11-|
|-------------------------------13-|-8-8-8-8-8-8-9-9----9-|
|----------------------------------|-8-------8------------|
|----------------------------------|----------------------|
|----------------------------------|----------------------|
|----------------------------------|----------------------|

|---6-6-6---6-8-8-8-8-8-*|---6-6-6---6-6-6-8------------------------|
|-8-8-8-8-8-8-----------*|-8-8-8-8-8-8-8-8-8-------3-4-6-8-6-4------|
|-8-------8-------------*|-8-------8---------5-3-5-------------2----|
|-----------------------*|------------------------------------------|
|-----------------------*|------------------------------------------|
|-----------------------*|------------------------------------------|

Cierre final:

|---1-1---0-0-------------|---1-1---0-0-||
|-3-----1-------3---3p0---|-3-----1-----||
|-----------------------2-|-------------||
|-0-----3---------0-------|-0-----3-----||
|-------------2---------0-|-------------||
|-------------------------|-------------||


|-------------10-11--15-13-15-13-11--------|
|-13-11-13-13-11-13--16-15-16-15-13-13--13-|
|-13-12-13-13-----------------------12--12-|
|------------------------------------------|
|------------------------------------------|
|------------------------------------------|
Suggest correction
Give kudos to tab author, rate the tab!
1 2 3 4 5
comments
print report bad tab
guest
You may want to rate the tab now too:
select rating
Wanna post a correction for this tab? Suggest correction