Oops, an error
Loading. Please wait.

Like Me Slightly Tab

5,447 views 3 this week
6 commentsread comments
1 2 3 4 5
excellent!
x 7
add to favorites
launch autoscroll
font size
0
reset
how to read this tab
guitar tuner
Autoscroll
slow
fast
+/-
esc
set tempo
stop
Help us to improve Ultimate-Guitar.com Take our survey!
×
Author
Difficulty
Capo
intermediate
2nd fret
Artist: Max Milner
Song: Like Me Slightly
Album: The Acoustic Deleted EP

Standard tuning
Capo on the 2nd fret


Intro
e|----------0------------------0----------------0--------------0-------------|
B|----------0------------------0----------------0--------------0-------------|
G|-----11--11--11\8--8------8--8--8\6--6-----6--6--6--6-----6--6--6/11--11---|
D|---------------------------------------------------------------------------|
A|---------------------------------------------------------------------------|
E|--0--------------------7----------------5--------------5-------------------|

e|----------0------------------0----------------0--------------0-------------|
B|----------0------------------0----------------0--------------0-------------|
G|-----11--11--11\8--8------8--8--8\6--6-----6--6--6--6-----6--6--6/11--11---|
D|---------------------------------------------------------------------------|
A|---------------------------------------------------------------------------|
E|--0--------------------7----------------5--------------5-------------------|

Verse 1
e|----------0------------------0----------------0--------------0-------------|
B|----------0------------------0----------------0--------------0-------------|
G|-----11--11--11\8--8------8--8--8\6--6-----6--6--6--6-----6--6--6/11--11---|
D|---------------------------------------------------------------------------|
A|---------------------------------------------------------------------------|
E|--0--------------------7----------------5--------------5-------------------|

e|----------0------------------0----------------0--------------0-------------|
B|----------0------------------0----------------0--------------0-------------|
G|-----11--11--11\8--8------8--8--8\6--6-----6--6--6--6-----6--6--6/11--11---|
D|---------------------------------------------------------------------------|
A|---------------------------------------------------------------------------|
E|--0--------------------7----------------5--------------5-------------------|

e|----------0------------------0----------------0--------------0-------------|
B|----------0------------------0----------------0--------------0-------------|
G|-----11--11--11\8--8------8--8--8\6--6-----6--6--6--6-----6--6--6\5--5-----|
D|---------------------------------------------------------------------------|
A|---------------------------------------------------------------------------|
E|--0--------------------7----------------5--------------5-------------------|

e|-----0----------------0----------------------------------0--------------0--|
B|-----0----------------0----------------------------------0--------------0--|
G|-----5--5--5--5----5--5--5\4--4-----4--4-----3--3-----2--2--2--2-----2--2--|
D|---------------------------------------------------------------------------|
A|---------------------------------------------------------------------------|
E|--5-------------5----------------4--------3--------2--------------2--------|

e|---------12---------12---|
B|---------12---------12---|
G|---------12---------12---|
D|---------12---------12---|
A|---------12---------12---|
E|--0--12--12--0--12--12---|

Chorus
e|---------------------------------------------------------------------------|
B|---------------------------------------------------------------------------|
G|-----11/8-----8/6-----6--6/4----------11/8-----8/6-----6--6/4--------------|
D|------------------------------6/4------------------------------6/4---------|
A|---------------------------------------------------------------------------|
E|--0--------7-------5---------------0--------7-------5----------------------|

e|-------------------------0--------------0-------------|
B|-------------------------0--------------0-------------|
G|-----11/8-----8/6-----6--6--6--6-----6--6--6\5--5-----|
D|------------------------------------------------------|
A|------------------------------------------------------|
E|--0--------7-------5--------------5-------------------|

e|-----0----------------0----------------------------------0--------------0--|
B|-----0----------------0----------------------------------0--------------0--|
G|-----5--5--5--5----5--5--5\4--4-----4--4-----3--3-----2--2--2--2-----2--2--|
D|---------------------------------------------------------------------------|
A|---------------------------------------------------------------------------|
E|--5-------------5----------------4--------3--------2--------------2--------|

Link
e|-------------------------------0--------------------------------------14---|
B|-------------------------------0-------------------------------------------|
G|-----11/8--8-----8/6--6-----6--6--6/11--11-----11/8--8-----8/6--6----------|
D|---------------------------------------------------------------------------|
A|---------------------------------------------------------------------------|
E|--0-----------7----------5------------------0-----------7----------5-------|

Verse 2
e|----------0------------------0----------------0--------------0-------------|
B|----------0------------------0----------------0--------------0-------------|
G|-----11--11--11\8--8------8--8--8\6--6-----6--6--6--6-----6--6--6/11--11---|
D|---------------------------------------------------------------------------|
A|---------------------------------------------------------------------------|
E|--0--------------------7----------------5--------------5-------------------|

e|----------0------------------0----------------0--------------0-------------|
B|----------0------------------0----------------0--------------0-------------|
G|-----11--11--11\8--8------8--8--8\6--6-----6--6--6--6-----6--6--6/11--11---|
D|---------------------------------------------------------------------------|
A|---------------------------------------------------------------------------|
E|--0--------------------7----------------5--------------5-------------------|

e|----------0------------------0----------------0--------------0-------------|
B|----------0------------------0----------------0--------------0-------------|
G|-----11--11--11\8--8------8--8--8\6--6-----6--6--6--6-----6--6--6\5--5-----|
D|---------------------------------------------------------------------------|
A|---------------------------------------------------------------------------|
E|--0--------------------7----------------5--------------5-------------------|

e|-----0----------------0----------------------------------0--------------0--|
B|-----0----------------0----------------------------------0--------------0--|
G|-----5--5--5--5----5--5--5\4--4-----4--4-----3--3-----2--2--2--2-----2--2--|
D|---------------------------------------------------------------------------|
A|---------------------------------------------------------------------------|
E|--5-------------5----------------4--------3--------2--------------2--------|

e|---------12---------12---|
B|---------12---------12---|
G|---------12---------12---|
D|---------12---------12---|
A|---------12---------12---|
E|--0--12--12--0--12--12---|

Chorus
e|---------------------------------------------------------------------------|
B|---------------------------------------------------------------------------|
G|-----11/8-----8/6-----6--6/4----------11/8-----8/6-----6--6/4--------------|
D|------------------------------6/4------------------------------6/4---------|
A|---------------------------------------------------------------------------|
E|--0--------7-------5---------------0--------7-------5----------------------|

e|-------------------------0--------------0-------------|
B|-------------------------0--------------0-------------|
G|-----11/8-----8/6-----6--6--6--6-----6--6--6\5--5-----|
D|------------------------------------------------------|
A|------------------------------------------------------|
E|--0--------7-------5--------------5-------------------|

e|-----0----------------0----------------------------------0--------------0--|
B|-----0----------------0----------------------------------0--------------0--|
G|-----5--5--5--5----5--5--5\4--4-----4--4-----3--3-----2--2--2--2-----2--2--|
D|---------------------------------------------------------------------------|
A|---------------------------------------------------------------------------|
E|--5-------------5----------------4--------3--------2--------------2--------|

Bridge
e|--------0--------0-----0-----0--0----------------------0--------0-----0-----0--0------------|
B|--------0--------0-----0-----0--0----------------------0--------0-----0-----0--0------------|
G|-----------------------1-----2--1-------------------------------------1-----2--1------------|
D|--------------------------4--------2--4/6\4------------------------------4--------2--4/6\4--|
A|-----7--------9-------------------------------------7--------9------------------------------|
E|--5--------7--------0------------------------2/4/5--------7--------0------------------------|

e|------------0--------0-----0-----0--0----------------------0--------0--------0--------0---|
B|------------0--------0-----0-----0--0----------------------0--------0--------0--------0---|
G|---------------------------1-----2--1-----------------------------------------------------|
D|------------------------------4--------2--4/6\4-------------------------------------------|
A|---------7--------9-------------------------------------7--------7--------9--------9------|
E|--2/4/5--------7--------0------------------------2/4/5--------5--------7--------7---------|

Chorus
e|---------------------------------------------------------------------------|
B|---------------------------------------------------------------------------|
G|-----11/8-----8/6-----6--6/4----------11/8-----8/6-----6--6/4--------------|
D|------------------------------6/4------------------------------6/4---------|
A|---------------------------------------------------------------------------|
E|--0--------7-------5---------------0--------7-------5----------------------|

e|-------------------------0--------------0-------------|
B|-------------------------0--------------0-------------|
G|-----11/8-----8/6-----6--6--6--6-----6--6--6\5--5-----|
D|------------------------------------------------------|
A|------------------------------------------------------|
E|--0--------7-------5--------------5-------------------|

e|-----0----------------0----------------------------------0--------------0--|
B|-----0----------------0----------------------------------0--------------0--|
G|-----5--5--5--5----5--5--5\4--4-----4--4-----3--3-----2--2--2--2-----2--2--|
D|---------------------------------------------------------------------------|
A|---------------------------------------------------------------------------|
E|--5-------------5----------------4--------3--------2--------------2--------|
Suggest correction
comments
print report bad tab
6 comments total. Showing first comments.
0 reply
Hcutmore274 10 wrote on October 2 2013, 02:58 pm

YOU GOD!!!!!!!!!!!!!!!!!!!!!!

0 reply
alexbbowler 10 wrote on February 3 2014, 04:39 pm

Really good, but retuning E F# B F# B e seems to me to make the whole thing a lot nicer :)

0 reply
trent.henry.794 95 wrote on March 17 2014, 03:58 pm

Sounds perfect. The one thing I added was sliding from 6/4/2 when there is the slide on the fourth string instead of the third during the chorus, though it is kind of a pain to do. Other than that it sounds spot on to the recording, fantastic work!

guest
You may want to rate the tab now too:
select rating
Please do not post tabs as comments. Select "correction" instead!