Oops, an error
Loading. Please wait.

Sei Fantastica Tab

version 1
version 1

Whole song

1,726 views 3 this week
no commentswrite comment
1 2 3 4 5
please rate
add to favorites
launch autoscroll
font size
0
reset
how to read this tab
guitar tuner
Autoscroll
slow
fast
+/-
esc
set tempo
stop
Help us to improve Ultimate-Guitar.com Take our survey!
×
Author
Difficulty
intermediate
_____________________________________________________________________________________________
   SEI FANTASTICA
 (MAX PEZZALI - 883)
_____________________________________________________________________________________________
tabbed by Masho90



--------------------------------------------------------------
 struttura e accordi:
--------------------------------------------------------------

intro:

| Sol  | Sol  |


strofa1:

| Sol  | Sol  | Do   | Mim  Re   | Sol   |  x 2

| Mim  | Re   | Do   | Re   | Mim  | Re   |

| Do   | Do   | Do   | Do  Re   |


ritornello1:

| Sol  Re  | Lam  Do   |  x 4


strofa2:

| Sol  | Sol  | Do   | Mim  Re   | Sol   |

| Sol  | Do   | Mim  Re   | Sol   |

| Mim  | Re   | Do   | Re   | Mim  | Re   |

| Do   | Do   | Do   | Do  Re   |


ritornello2:

| Sol  Re  | Lam  Do   |  x 4


solo:

| Sol  Re  | Lam  Do   |  x 4





--------------------------------------------------------------
 testo, accordi e tab del solo:
--------------------------------------------------------------

SOL   SOL

SOL                    SOl
   Luce in fondo al tunnel
             DO 
Boccata d'aria 
      MIm  
Limpida 
   RE        SOL
Parole, musica 
SOL
   Casa dolce casa 
Sol                         DO
   Un po' città, un po' isola 
            MIm
Un po' New York 
      RE       SOL
Un po' Polinesia 

        MIm
Siamo qui 
              RE
Tante vittorie 
                 DO
Giorni bellissimi 
                RE
Sconfitte stupide 
                MIm
Giorni difficili 
                   RE
Tristezze ed euforie 

Gioie e dolori 
    DO
Ma sento sempre che tu ci sei 
    DO                              
Che anche quando è dura non te ne vai 
  DO
E anche con i denti combatterai 
          DO             RE           SOL
Sempre accanto a me non mi abbandonerai 

        RE     LAm
Sei fantastica 
       DO             SOL
Forte come il rock'n roll 
      RE    LAm
Una scarica 
      DO          SOL  
Uno shock elettrico 
        RE           LAm
Sei la fonte di energia 
      DO           SOL 
Più potente che ci sia 
        RE    LAm
Bomba atomica 
        DO         SOL
dritta nello stomaco 


Storia a lieto fine 
Ai confini della realtà 
Favola 
Bacchetta magica 
Ragione e passione 
Giovinezza e maturità 
Armonia 
Tra corpo e anima 

Siamo qui 
Tante vittorie 
Giorni bellissimi 
Sconfitte stupide 
Giorni difficili 
Tristezze ed euforie 
Gioie e dolori 
Ma sento sempre che tu ci sei 
Che anche quando è dura non te ne vai 
E anche con i denti combatterai 
Sempre accanto a me non mi abbandonerai 


Sei fantastica 
Forte come il rock'n roll 
Una scarica 
Uno shock elettrico 
Sei la fonte di energia 
Più potente che ci sia 
Bomba atomica 
dritta nello stomaco



   Sol             Re            Lam       Do                  Sol     Re
e|-----------------------------|-----------------------------|------------8-7-8-7----12----|
B|-----10b12~-10p8h10~---------|----------------15b17~-15p12-|-15~----------------10----10-|
G|-----------------------9p7-7-|-10~-------------------------|-----------------------------|
D|-----------------------------|-----------------------------|-----------------------------|
A|-----------------------------|-----------------------------|-----------------------------|
E|-----------------------------|-----------------------------|-----------------------------|
   ^   ^           ^    ^        ^    ^    ^    ^              ^   ^   ^          ^

   Lam       Do                 Sol          Re
e|--------17b19~-17b19r18b19~-|-15----------------------17b19~-17p15-|
B|-8~-------------------------|-x------------------------------------|
G|----------------------------|-x-----14b16~-14p12h14~---------------|
D|----------------------------|--------------------------------------|
A|----------------------------|--------------------------------------|
E|----------------------------|--------------------------------------|
   ^   ^     ^           ^      ^     ^      ^        ^

   Lam               Do                  Sol            Re
e|-17p15-------------------------------|------------------17b19~-17b19r18b19~|
B|-------17~---------------------------|-------------------------------------|
G|-------------14h15-16-14h15-16-15-14-|-12~------12-------------------------|
D|-------------------------------------|----12h14----14----------------------|
A|-------------------------------------|-------------------------------------|
E|-------------------------------------|-------------------------------------|
   ^        ^        ^        ^          ^        ^     ^        ^

   Lam          Do
e|-(19)------------------------||
B|-------15-12--13-------------||
G|-----------------12----------||
D|-----------------------------||
A|-----------------------------||
E|-----------------------------||
   ^     ^      ^       ^
Suggest correction
What's this?
You can suggest a correction to this tab. Community and Mods will review your correction and vote to approve or reject it.
comments
We did not receive enough feedback on this tab! Please rate:
print report bad tab
1 2 3 4 5
guest
You may want to rate the tab now too:
select rating
Please do not post tabs as comments. Select "correction" instead!