Oops, an error
Loading. Please wait.

Chase The Devil Bass Tab

version 1
version 1

Whole song

13,288 views 21 this week
no commentswrite comment
1 2 3 4 5
x 4
add to favorites
launch autoscroll
font size
0
reset
guitar tuner
Autoscroll
slow
fast
+/-
esc
set tempo
stop
Help us to improve Ultimate-Guitar.com Take our survey!
×
g:---------------|
d:---------------| x4
a:---------------|
e:--0--3--5------| 

g:----------------------------------|
d:----------------------------------| 
a:------------3-/7--5--5-5-5-5-7----|  4x
e:--0--3--5-5--------------------5--|

g:--------------------------------------------------|
d:--------------------------------------------------| 4x
a:--0--3--5--:5-5-5-5-5-3-5--3-5-7--7-7-7-7-7-8-7:2X|
e:--------------------------------------------------|

====================================================
by Ad@m e-mail: Adymlbn@gmail.com
enjoy! 
Suggest correction
comments
print report bad tab
guest
You may want to rate the tab now too:
select rating
Wanna post a correction for this tab? Suggest correction