Oops, an error
Loading. Please wait.

Lights Down Low Tab

version 2
version 2

Whole song

  • No capo, tab plus tabbed out chords.
  • This tab is made off of the version of the song fe... Show more
112 views 6 this week
no commentswrite comment
1 2 3 4 5
3 more votes to show rating
add to favorites
launch autoscroll
font size
0
reset
how to read this tab
guitar tuner
Autoscroll
slow
fast
+/-
esc
set tempo
stop
Help us to improve Ultimate-Guitar.com Take our survey!
×
Author
Difficulty
intermediate
About this tab version
No capo, tab plus tabbed out chords. Was this info helpful? Yes No
[Intro]

e|-----------------|-------------------|--------------------|---------------------|
B|------8-s--8---s-|--------9-s--9---s-|--------------------|---------------------|
G|-----------------|-------------------|--------8-s---8---s-|-------8-s--8---s----|
D|-----------------|-------------------|--------------------|---------------------|
A|--6--------6-----|----8--------8-----|--------------------|---------------------|
E|-----------------|-6-----------------|-6--8---------8-----|-6--8-------8--------|

Palm Mute all the notes on the low E and A string.

[Verse 1]

e|--------------------|-------------------|--------------------|---------------------|
B|---------8-s--8---s-|--------9-s--9---s-|--------------------|---------------------|
G|--------------------|-------------------|--------8-s---8---s-|-------8-s--8---s----|
D|--------------------|-------------------|--------------------|---------------------|
A|-----6--------6-----|----8--------8-----|--------------------|---------------------|
E|--6-----------------|-6-----------------|-6--8---------8-----|-6--8-------8--------|(x2)


[Pre-Chorus]

e|-------------------|-----------------|------------------|---------------------|
B|--------4-s--4---s-|------6-s--6---s-|-------8-s--8---s-|-------8-s--8---s----|
G|-------------------|-----------------|------------------|---------------------|
D|-------------------|-----------------|------------------|---------------------|
A|-------------------|-----------------|------------------|---------------------|
E|--3--4-------4-----|-4--6------6-----|-6--8-------8-----|-6--8-------8--------|


[Chorus]

e|--8---6--|--3--1----|
B|--9---6--|--4--1----|
G|--10--8--|--5--3----|
D|--10--8--|--5--3----|
A|--8---8--|--3--3----|
E|------6--|-----1----|(x4)


[Verse 2]

e|--------------------|-------------------|--------------------|---------------------|
B|---------8-s--8---s-|--------9-s--9---s-|--------------------|---------------------|
G|--------------------|-------------------|--------8-s---8---s-|-------8-s--8---s----|
D|--------------------|-------------------|--------------------|---------------------|
A|-----6--------6-----|----8--------8-----|--------------------|---------------------|
E|--6-----------------|-6-----------------|-6--8---------8-----|-6--8-------8--------|(x2)


[Pre-Chorus]

e|-------------------|-----------------|------------------|---------------------|
B|--------4-s--4---s-|------6-s--6---s-|-------8-s--8---s-|-------8-s--8---s----|
G|-------------------|-----------------|------------------|---------------------|
D|-------------------|-----------------|------------------|---------------------|
A|-------------------|-----------------|------------------|---------------------|
E|--3--4-------4-----|-4--6------6-----|-6--8-------8-----|-6--8-------8--------|


[Chorus]

e|--8---6--|--3--1----|
B|--9---6--|--4--1----|
G|--10--8--|--5--3----|
D|--10--8--|--5--3----|
A|--8---8--|--3--3----|
E|------6--|-----1----|(x6)


[Bridge]

e|--1--3--1--3--|
B|--1--4--3--4--|
G|--1--5--3--5--|
D|--3--5--3--5--|
A|--3--3--1--3--|
E|--1-----0-----|(x4)


[Chorus]

e|--8---6--|--3--1----|
B|--9---6--|--4--1----|
G|--10--8--|--5--3----|
D|--10--8--|--5--3----|
A|--8---8--|--3--3----|
E|------6--|-----1----|(x2)
Let these ring out


e|--8---6--|--3--1----|
B|--9---6--|--4--1----|
G|--10--8--|--5--3----|
D|--10--8--|--5--3----|
A|--8---8--|--3--3----|
E|------6--|-----1----|(x4)

[Outro]

e|--8---6--|--3--1----|
B|--9---6--|--4--1----|
G|--10--8--|--5--3----|
D|--10--8--|--5--3----|
A|--8---8--|--3--3----|
E|------6--|-----1----|(x2)
Let these ring out


************************************

| s   Slap

************************************
Suggest correction
Give kudos to tab author, rate the tab!
1 2 3 4 5
comments
print report bad tab
guest
You may want to rate the tab now too:
select rating
Wanna post a correction for this tab? Suggest correction