Oops, an error
Loading. Please wait.

Lights Down Low Tab

version 3
version 3

Whole song

  • No capo, tab plus tabbed out chords.
  • This tab is made off of the version of the song fe... Show more
133 views 24 this week
no commentswrite comment
1 2 3 4 5
3 more votes to show rating
add to favorites
launch autoscroll
font size
0
reset
how to read this tab
guitar tuner
Autoscroll
slow
fast
+/-
esc
set tempo
stop
Help us to improve Ultimate-Guitar.com Take our survey!
×
Difficulty
Tuning
Capo
intermediate
E A D G B E
3rd fret
*NOTE: This tab is made off of the version of the song featuring gnash
(https://www.youtube.com/watch?v=5-xVwxqjNyI)

**Numbers surrounded by parentheses are optional, personally, I think the chords sound better with them in,
but I don't feel as though it makes too much of a difference.

***G chord is arranged slightly differently in the pre-chorus and the chorus; 
PRE-CHORUS G (320022)
CHORUS G (320002)

****Chorus and Outro have the same picking pattern

[Intro/Verse]

C  Dm  Am  Am

    C        Dm       Am
e|-----0--0-----1--1---------------------------------------------------------|
B|-----1--1-----3--3-------1--1----1--1--------------------------------------|
G|-------------------------2--2----2--2--------------------------------------|
D|-----------0----(0)--------------------------------------------------------|
A|--3----(3)-----------0-----(0)-0---(0)-------------------------------------|
E|---------------------------------------------------------------------------|


[Pre-Chorus]

F  G  Am  Am

    F        G        Am       
e|---------------------------------------------------------------------------|
B|-----2--2-----2--2-----1--1-----1--1---------------------------------------|
G|-----3--3-----0--0-----2--2-----2--2---------------------------------------|
D|---------------------------------------------------------------------------|
A|--1-----------------0--------0---------------------------------------------|
E|-----------3---------------------------------------------------------------|


[Chorus/Outro]

Dm  C  Am  G (x4)

    Dm    C    Am    G
e|-----1--0------------------------------------------------------------------|
B|-----3--1-------1--0-------------------------------------------------------|
G|----------------2--0-------------------------------------------------------|
D|--0------------------------------------------------------------------------|
A|--------3----0-------------------------------------------------------------|
E|-------------------3-------------------------------------------------------|

[Outro End]

    Dm    C    Am    G
e|--1-----0------------------------------------------------------------------|
B|--3-----1----1-----0-------------------------------------------------------|
G|-------------2-----0-------------------------------------------------------|
D|--0------------------------------------------------------------------------|
A|--------3----0-------------------------------------------------------------|
E|-------------------3-------------------------------------------------------|

LYRICS + CHORDS

[Intro]

C  Dm  Am  Am

[Verse]

C                              Dm
 Heaven only knows where you've been
                  Am 
But i don't really need to know
                  Am
I know where you're gonna go
C                                     Dm
 On my heart where you're resting your head
                Am
You just look so beautiful,
                Am
Like you were an angel

[Pre-Chorus]

      F
Can I stop the flow of time?
         G
Or can I swim in your divine?
      Am                                Am
'Cause I don't think I'd ever leave this place

[Chorus]

Dm  C                                    Am  G
Oh, turn the lights, turn the lights down low
Dm   C                                 Am  G
Yeah-h, now I'm feeling you breathing slow
     Dm              C                      
'Cause baby we're just reckless kids
Am           G
Tryna find an island in the flood
Dm  C                                    Am  G
Oh, turn the light's turn the lights down low, Ohhh

[Verse] (gnash)

C
Moonlight, mood lights, moves like J-Lo
Dm
Tell me what you want from me, I'll do it if you say so
Am
'Cause you're the only one for me, I'm never gonna say no
Am
I found me an angel i can see it in your halo
C
 Have you ever dreamt what we could do?
Dm
 Have you ever sent an 'I love you'?
Am
I've never felt the feelings that i feel for you
Am
So maybe we can make a 'we' of me and you
C
Imma treat you right tonight, let's make it last forever
Dm
I promise you that no-one else will ever treat you better
Am
And if you don't believe me, please see I don't need no effort
(Slap/Mute)
All you gotta do is flip that switch before we bed-up

[Chorus]

Dm  C                                    Am  G
Oh, turn the lights, turn the lights down low
Dm   C                                 Am  G
Yeah-h, now I'm feeling you breathing slow
     Dm              C                      
Cause baby we're just reckless kids
Am           G
Tryna find an island in the flood
Dm  C                                    Am  G
Oh, turn the light's turn the lights down low, Ohhh

[Interlude]

Dm  C  Am  G (x2)

Dm
And I will give you everything, baby
C
Can you feel this energy? Take it
Am
And you can have the best of me, baby
Dm
And I will give you anything
C
Can you feel this energy? Take it
Am
And you can have the best of me, baby

    Dm    C    Am    G
e|-----1--0------------------------------------------------------------------|
B|-----3--1-------1--0-------------------------------------------------------|
G|----------------2--0-------------------------------------------------------|
D|--0------------------------------------------------------------------------|
A|--------3----0-------------------------------------------------------------|
E|-------------------3-------------------------------------------------------|

[Outro/Chorus]

    Dm    C          Am    G
e|--1-----0------------------------------------------------------------------|
B|--3-----1----------1-----0-------------------------------------------------|
G|-------------------2-----0-------------------------------------------------|
D|--0------------------------------------------------------------------------|
A|--------3----------0-------------------------------------------------------|
E|-------------------------3-------------------------------------------------|

Dm  C                                    Am  G
Oh, turn the lights, turn the lights down low
Dm     C                              Am  G   
Yeah-h, now I'm feeling you breathing slow...

    Dm    C    Am    G
e|-----1--0------------------------------------------------------------------|
B|-----3--1-------1--0-------------------------------------------------------|
G|----------------2--0-------------------------------------------------------|
D|--0------------------------------------------------------------------------|
A|--------3----0-------------------------------------------------------------|
E|-------------------3-------------------------------------------------------|

Dm  C                                    Am  G
Oh, turn the lights, turn the lights down low
Dm   C                                 Am  G
Yeah-h, now I'm feeling you breathing slow
     Dm              C                      
Cause baby we're just reckless kids
Am           G
Tryna find an island in the flood
Dm  C                                    Am  G
Oh, turn the light's turn the lights down low, Ohhh

[Outro End]

Dm  C  Am  G (x2)

    Dm    C          Am    G
e|--1-----0------------------------------------------------------------------|
B|--3-----1----------1-----0-------------------------------------------------|
G|-------------------2-----0-------------------------------------------------|
D|--0------------------------------------------------------------------------|
A|--------3----------0-------------------------------------------------------|
E|-------------------------3-------------------------------------------------|

(Turn the lights down low)


************************************

| (n)  Ghost note

************************************
Suggest correction
Give kudos to tab author, rate the tab!
1 2 3 4 5
comments
print report bad tab
guest
You may want to rate the tab now too:
select rating
Wanna post a correction for this tab? Suggest correction