Oops, an error
Loading. Please wait.

I Believe Tab

2,151 views 1 this week
no commentswrite comment
1 2 3 4 5
3 more votes to show rating
add to favorites
launch autoscroll
font size
0
reset
how to read this tab
guitar tuner
Autoscroll
slow
fast
+/-
esc
set tempo
stop
Help us to improve Ultimate-Guitar.com Take our survey!
×
Author
Difficulty
novice
CHECK OUT MAXI PRIEST @
www.maxipriest.com/ - 4k

RENDITION OF MAXI PRIEST'S
"I BELIEVE"

Stuffs & comments to sanviduca@gmail.com,
or sanviduca@gmail.com or on the site

chords used:  ( Dm    A#     C    Am    Gm)
           
Progression  pattern runs through entire tune.
(Dm    A#    C    Am    Gm    Am)    
         
 Intro picks played over this intro verse of all songs. But intermittently you can improvise
Picking into the song so as u like it.
e-5-5--7------------5-5--------5-5--7-7--7--5------------|
B--------8-8--7--5-------8-7-5-----------------8--5------|
G--------------------------------------------------------|
D--------------------------------------------------------|
A--------------------------------------------------------|
E--------------------------------------------------------|

Intro picks played over this intro verse of all songs. But intermittently you can improvise
Picking into the song so as u like it.
e-5-5--7------------5-5--------5-5--7-7--7--5------------|
B--------8-8--7--5-------8-7-5-----------------8--5------|
G--------------------------------------------------------|
D--------------------------------------------------------|
A--------------------------------------------------------|
E--------------------------------------------------------|
INTRO
La la la la la la la la la….laaaaaa la la la laaa

I've seen so many things throughout my life,
the only thing I've ever seen survive the test of time;
is the strength of your lovee…
and then the right seems wrong,
and the wrong seems right,
just be careful..be strong

Chorus:
Dm    A#    C    Am    Gm    Am
Whatever my eyes can see,
my heart can feel,
that's why I believe in love,
knowing my eyes can see,
as sure as the deep blue see,
that's why I believe in love

Dm    A#    C    Am    Gm    Am
You best that ever lasting smile
gotta give thanks for the way you've touched my life..
with your lovee…
and when the right seems wrong,
and the wrong seems right,
I'll be careful, I'll be strongg

Dm    A#    C    Am    Gm    Am
whatever my eyes can see,
my heart can feel,
that's why I believe in love,
knowing my eyes can see,
as sure as the deep blue see,
that's why I believe in love

Dm    A#    C    Am    Gm    Am
In the moments when I'm alone,
in the times when I'm not sure,
I can always call on youu..

Dm    A#    C    Am    Gm    Am
In the moments when I'm in ?
When it seems like no ones there
There's one thing I know is true
I can always count on you..?
Dm    A#    C    Am    Gm    Am
Chorus x2

Suggest correction
Give kudos to tab author, rate the tab!
1 2 3 4 5
comments
print report bad tab
guest
You may want to rate the tab now too:
select rating
Wanna post a correction for this tab? Suggest correction