Oops, an error
Loading. Please wait.

Some Guys Have All The Luck Bass Tab

1,127 views 1 this week
no commentswrite comment
1 2 3 4 5
3 more votes to show rating
add to favorites
launch autoscroll
font size
0
reset
guitar tuner
Autoscroll
slow
fast
+/-
esc
set tempo
stop
Help us to improve Ultimate-Guitar.com Take our survey!
×
Author
Some Guys Have All The Luck
Song written by Jeff Fortgang in 1986
This version by Maxi Priest reached number 12 in 1987 in UK
Tabbed by bass50611. Any comments: bass254@btinternet.com
One of my favourite Reggae songs, hope you enjoy it too

Intro:
G-------------------------------------------------------------------|
D-----------------------------------------------------4-----------5-|
A---7------------7-----------4-----------4---------2---2-2-0--------|
E-5----0-0-0---5---0-0-0---2---0-0-0---2---0-0-0---------------3----|

G-------------------------------------|
D-------------------------------------|
A-------------------------------------|
E-3-2-0-0-0---00000---0-0-0---00000---|

Verse & Chorus:
G-------------------------------------------------------------------|
D-------------------------------------------------------------------|
A-------------------------------------------------------------------|
E-55555---3-55555---3-55555---3-55555---4-22222---0-22222---0-22222-|

G----------------------------------------------------------------|
D----------------------------------------------------------------|
A------------22222---0-22222---0-----------------7-7-7---5-7-7-7-|
E-0-22222---0-------------------33333---1-33333---7-7-------7-7--|

G-------------------|
D-------------------|
A-5-7-7-7---5-7-7-7-|
E----7-7-------7-7--|

Full Repeats on Verse & Chorus With Your Own Variations:
Suggest correction
Give kudos to tab author, rate the tab!
1 2 3 4 5
comments
print report bad tab
guest
You may want to rate the tab now too:
select rating
Wanna post a correction for this tab? Suggest correction