Oops, an error
Loading. Please wait.

Girls Who Play Guitars Tab

version 2
version 2

Whole song

7,562 views 15 this week
2 commentsread comments
1 2 3 4 5
accurate
x 5
add to favorites
launch autoscroll
font size
0
reset
how to read this tab
guitar tuner
Autoscroll
slow
fast
+/-
esc
set tempo
stop
Help us to improve Ultimate-Guitar.com Take our survey!
×
Author
First tab, I noticed some deficiencies in the other posted guitar tab so here goes.

Tuning: E standard
Moderate distortion

Intro: let open low E string ring

Verse: "You've been/In the gaps"
|---------------------------------------------------------------|
|---------------------------------------------------------------|
|---------------------------------------------------------------|
|-----------------------9-11------------------------9-11---9-11-|
|--9-11---9-11---9-11---0-0----9-11---9-11---9-11---0-0----0-0--|
|--0-0----0-0----0-0-----------0-0----0-0----0-0----------------|


verse into Prechorus: "We used to talk about..."
from.....v there onward play as all 8th notes
|-------------------------------------------------------------------|
|-------------------------------------------------------------------|
|------------------------------------------------------------9-11---|
|-9-11---9-11-11-11-------------------------9-11-11-11-11-12--------|
|-0-0----0-0--0--0---9-11-11-11-11-12-12-12-0-0--0--0--0--0---------|
|--------------------0-0--0--0--0--0--0--0--------------------------|
                    (^ ---- repeat this segment 4 times  -----------| ^)

Chorus:
|-------------------------3-3--3-3------------------------------|
|--10-10-10-11-10-10-10---3-3--5-5------------------------------|
|--10-10-10-10-10-10-10---4-4--5-5------------------------------|
|--10-10-10-10-10-10-10---5-5--5-5------------------------------|
|--8--8--8--8--8--8--8----5-5--3-3------------------------------|
|-------------------------3-3-----------------------------------|

NOTE: For the chorus,
- on the first two iterations, play the chorus segment four times.
- for the third iteration, play it five times.


Bridge: "When you lie in your bed..."
(Play as constant eigth notes for the non-chord part)
|----------------------------------------------------------------|
|----------------------------------------------------------------|
|-------4-------4-------4-------4--------------6-------6-------6-|
|---4-4---4-------------------------(x4)---6-6---6---------------|
|-----------5-5---5-5-5---5-5-5---5----------------7-7---7-7-7---|
|----------------------------------------------------------------|

|---------------------------------------------------------------|
|---------------------------------------------------------------|
|-------6------------12-12---7---12-12---10-10--10--------------|
|------------(x2)----13-13---8---12-12---11-11--11--(x4)--------|
|-7-7-7---7----------14-14---9---12-12---12-12--12--------------|
|---------------------------------------------------------------|


Outro is one iteration of the verse, plus four iterations of the prechorus, ending on 
low E string again.


Song Structure:

Verse
Prechorus
Verse
Prechorus
Chorus
Verse
Chorus
Bridge
Chorus
Outro

Thanks for reading, rate please.
Suggest correction
comments
print report bad tab
2 comments total.
0 reply
Franzypants 109 wrote on June 26 2009, 12:49 pm

Perfect! almost. I think you mistyped when writing down the "she goes out, she gets drunk" part. It should be moved up a string.

0 reply
CrazyYaz 725 wrote on July 3 2009, 05:02 am

Sounds really good, was waiting for someone to tab this, much better than the other tab. 5*

guest
You may want to rate the tab now too:
select rating
Please do not post tabs as comments. Select "correction" instead!