Oops, an error
Loading. Please wait.

F tab

version 1
version 1

Whole song

Interactive

3,064 views 3 this week
no commentswrite comment
1 2 3 4 5
2 more votes to show rating
add to favorites
×
Save as Personal and add changes to this tab that will be seen only by you. Learn more ›
×
You can save this tab as Personal to edit and correct it or add notes. All changes will be seen only by you. Learn more »
launch autoscroll
font size
0
reset
how to read this tab
guitar tuner
edit
Autoscroll
slow
fast
+/-
esc
set tempo
stop
----------------------------------------------------------------------------

                             'F' - Maximum the Hormone   
 
This is my first tab and I´m also quite new at guitar, I also did these tabs by 
ear so don't expect it to be 100% right.. or 80%... ya, anyway, here are the tabs 
of this amazing crazy song which, surprisingly, there were no tabs relating this 
song... so yeah... Rock on!

----------------------------------------------------------------------------

Tabbed by: SynysterCarrot (\o_o\)


Tuning: Drop C

e|---------------------------------------------------------------------------|
B|---------------------------------------------------------------------------|
G|---------------------------------------------------------------------------|
D|---------------------------------------------------------------------------|
A|---------------------------------------------------------------------------|
D|--5---6-5---5-5---5-0-0-3-3-5---6-5---5-5---5-0-0-3-3---(x2)---------------|

e|---------------------------------------------------------------------------|
B|---------------------------------------------------------------------------|
G|---------------------------------------------------------------------------|
D|---------------------------------------------------------------------------|
A|---------------------------------------------------------------------------|
D|--5h6-5h6-5h6-5h6-5h6-5h6-5h6-5h6-5h6-0-0-3-3---(x4)-----------------------|

e|---------------------------------------------------------------------------|
B|---------------------------------------------------------------------------|
G|----------------------------4-5-6------------------------------------------|
D|--4/7-6---4~------------4/7------------------------------------------------|
A|--------7-----(x7)---------------------------------------------------------|
D|---------------------------------------------------------------------------|

e|---------------------------------------------------------------------------|
B|---------------------------------------------------------------------------|
G|---------------------------------------------------------------------------|
D|--0--0--0h1--0h1--0h1--1h3-------0--0--0h1--1--3---------------------------|
A|--0--0--0h1--0h1--0h1--1h3-------0--0--0h1--1--3---------------------------|
D|--0--0--0h1--0h1--0h1--1h3-(x3)--0--0--0h1--1--3---------------------------| x2

e|---------------------------------------------------------------------------|
B|---------------------------------------------------------------------------|
G|---------------------6-----------------------------------------------------|
D|--4/7-6---4~---4/7-6---6~---4/7-6---4~---4-7-7777-4h7----------------------|
A|--------7-------------------------7----------------------------------------|
D|---------------------------------------------------------------------------|

e|---------------------------------------------------------------------------|
B|---------------------------------------------------------------------------|
G|---------------------6-----------------------4-5-6-------------------------|
D|--4/7-6---4~---4/7-6---6~---4/7-6---4~---4/7-------------------------------|
A|--------7-------------------------7----------------------------------------|
D|---------------------------------------------------------------------------|

e|---------------------------------------------------------------------------|
B|---------------------------------------------------------------------------|
G|---------------------------------------------------------------------------|
D|--0--0--0h1--0h1--0h1--1h3-------0--0--0h1--1--3---------------------------|
A|--0--0--0h1--0h1--0h1--1h3-------0--0--0h1--1--3---------------------------|
D|--0--0--0h1--0h1--0h1--1h3-(x3)--0--0--0h1--1--3---------------------------| 

e|---------------------------------------------------------------------------|
B|---------------------------------------------------------------------------|
G|---------------------------------------------------------------------------|
D|--------------------------777777778778779-77777777--1--3-------------------|
A|--5555555565565585-(x2)-----------------------------1--3-------------------|
D|----------------------------------------------------1--3-------------------|

e|---------------------------------------------------------------------------|
B|---------------------------------------------------------------------------|
G|--------------------333333333333333/555555555555555-77777777/99999999------|
D|--5-555555555555555-333333333333333/555555555555555-77777777/99999999------|
A|--5-555555555555555-222222222222222/444444444444444-66666666/88888888------|
D|--5-555555555555555--------------------------------------------------------|

e|---------------------------------------------------------------------------|
B|---------------------------------------------------------------------------|
G|------------------333333333333333------------------------------------------|
D|--555555555555555-333333333333333-333333333333333--1--3--------------------|
A|--555555555555555-222222222222222-333333333333333--1--3--------------------|
D|--555555555555555-----------------333333333333333--1--3--------------------|

e|---------------------------------------------------------------------------|
B|---------------------------------------------------------------------------|
G|---------------------------------------------------------------------------|
D|---------------------------------------------------------------------------|
A|--555555555-----555555555-----555555555-----555555555----------------------|
D|--555555555-3-4-555555555-3-4-555555555-3-4-555555555----------------------|

e|---------------------------------------------------------------------------|
B|---------------------------------------------------------------------------|
G|----------------------------4-5-6------------------------------------------|
D|--4/7-6---4~------------4/7------------------------------------------------|
A|--------7-----(x7)---------------------------------------------------------|
D|---------------------------------------------------------------------------|

e|---------------------------------------------------------------------------|
B|---------------------------------------------------------------------------|
G|---------------------------------------------------------------------------|
D|--0--0--0h1--0h1--0h1--1h3-------0--0--0h1--1--3---------------------------|
A|--0--0--0h1--0h1--0h1--1h3-------0--0--0h1--1--3---------------------------|
D|--0--0--0h1--0h1--0h1--1h3-(x3)--0--0--0h1--1--3---------------------------| x2

e|---------------------------------------------------------------------------|
B|---------------------------------------------------------------------------|
G|---------------------6-----------------------------------------------------|
D|--4/7-6---4~---4/7-6---6~---4/7-6---4~---4-7-7777-4h7----------------------|
A|--------7-------------------------7----------------------------------------|
D|---------------------------------------------------------------------------|

e|---------------------------------------------------------------------------|
B|---------------------------------------------------------------------------|
G|---------------------6-----------------------4-5-6-------------------------|
D|--4/7-6---4~---4/7-6---6~---4/7-6---4~---4/7-------------------------------|
A|--------7-------------------------7----------------------------------------|
D|---------------------------------------------------------------------------|

e|---------------------------------------------------------------------------|
B|---------------------------------------------------------------------------|
G|---------------------------------------------------------------------------|
D|--0--0--0h1--0h1--0h1--1h3-------0--0--0h1--1--3---------------------------|
A|--0--0--0h1--0h1--0h1--1h3-------0--0--0h1--1--3---------------------------|
D|--0--0--0h1--0h1--0h1--1h3-(x3)--0--0--0h1--1--3---------------------------| 

e|---------------------------------------------------------------------------|
B|---------------------------------------------------------------------------|
G|---------------------------------------------------------------------------|
D|--------------------------777777778778779-77777777--1--3-------------------|
A|--5555555565565585-(x2)-----------------------------1--3-------------------|
D|----------------------------------------------------1--3-------------------|

e|---------------------------------------------------------------------------|
B|---------------------------------------------------------------------------|
G|--------------------333333333333333/555555555555555-77777777/99999999------|
D|--5-555555555555555-333333333333333/555555555555555-77777777/99999999------|
A|--5-555555555555555-222222222222222/444444444444444-66666666/88888888------|
D|--5-555555555555555--------------------------------------------------------|

e|---------------------------------------------------------------------------|
B|---------------------------------------------------------------------------|
G|------------------333333333333333------------------------------------------|
D|--555555555555555-333333333333333-333333333333333--1--3--------------------|
A|--555555555555555-222222222222222-333333333333333--1--3--------------------|
D|--555555555555555-----------------333333333333333--1--3--------------------|

e|---------------------------------------------------------------------------|
B|---------------------------------------------------------------------------|
G|---------------------------------------------------------------------------|
D|---------------------------------------------------------------------------|
A|--555555555-----555555555-----555555555-----555555555----------------------|
D|--555555555-3-4-555555555-3-4-555555555-3-4-555555555----------------------|

e|---------------------------------------------------------------------------|
B|---------------------------------------------------------------------------|
G|-----------------Now, here is where the solo comes in...-------------------|
D|------------I have yet to figure out the tabs of the solo...---------------|
A|---------------------------------------------------------------------------|
D|---------------------------------------------------------------------------|

e|---------------------------------------------------------------------------|
B|---------------------------------------------------------------------------|
G|-------3~~--5~~--7~--9~----------------------------------------------------|
D|--5~~--3~~--5~~--7~--9~----------------------------------------------------|
A|--5~~--2~~--4~~--6~--8~----------------------------------------------------|
D|--5~~----------------------------------------------------------------------|

e|---------------------------------------------------------------------------|
B|---------------------------------------------------------------------------|
G|---------------------------------------------------------------------------|
D|---------------------------------------------------1--3--------------------|
A|---------------------------------------------------1--3--------------------|
D|--5-555-555-555-553-333-333-333-331-111-111-111-11-1--3--------------------|

e|---------------------------------------------------------------------------|
B|---------------------------------------------------------------------------|
G|--------------------333333333333333/555555555555555-77777777/99999999------|
D|--5-555555555555555-333333333333333/555555555555555-77777777/99999999------|
A|--5-555555555555555-222222222222222/444444444444444-66666666/88888888------|
D|--5-555555555555555--------------------------------------------------------|

e|---------------------------------------------------------------------------|
B|---------------------------------------------------------------------------|
G|------------------333333333333333------------------------------------------|
D|--555555555555555-333333333333333-333333333333333--1--3--------------------|
A|--555555555555555-222222222222222-333333333333333--1--3--------------------|
D|--555555555555555-----------------333333333333333--1--3--------------------|

e|---------------------------------------------------------------------------|
B|---------------------------------------------------------------------------|
G|---------------------------------------------------------------------------|
D|---------------------------------------------------------------------------|
A|---------------------------------------------------------------------------|
D|--5---6-5---5-5---5-0-0-3-3-5---6-5---5-5---5-0-0-3-3---(x2)---------------|

e|---------------------------------------------------------------------------|
B|---------------------------------------------------------------------------|
G|---------------------------------------------------------------------------|
D|---------------------------------------------------------------------------|
A|---------------------------------------------------------------------------|
D|--5h6-5h6-5h6-5h6-5h6-5h6-5h6-5h6-5h6-0-0-3-3---(x4)-----------------------|


e|---------------------------------------------------------------------------|
B|---------------------------------------------------------------------------|
G|---------------------------------------------------------------------------|
D|-----------------------------3~~~--3---------------------------------------|
A|-----------------------------3~~~--3---------------------------------------|
D|--5---6-5---5-5---5-0-0-3-3--3~~~--3---------------------------------------|



************************************

| /   slide up
| \   slide down
| h   hammer-on
| p   pull-off
| ~   vibrato
| +   harmonic
| x   Mute note
| b   Bend


************************************

            
            
Suggest correction
Creating personal tab
Creating personal tab
You can edit any tab online and save it as your Personal.

You can edit, replace or remove any tab part or add personal notes – all changes will be seen only by you.

Personal tabs can be accessed anytime from any device, even offline.
Learn more »
Give kudos to tab author, rate the tab!
1 2 3 4 5
comments
print report bad tab
guest
You may want to rate the tab now too:
select rating
Wanna post a correction for this tab? Suggest correction