Oops, an error
Loading. Please wait.

Kyokatsu bass

738 views 1 this week
no commentswrite comment
1 2 3 4 5
3 more votes to show rating
add to favorites
×
Save as Personal and add changes to this tab that will be seen only by you. Learn more ›
×
You can save this tab as Personal to edit and correct it or add notes. All changes will be seen only by you. Learn more »
launch autoscroll
font size
0
reset
guitar tuner
edit
Autoscroll
slow
fast
+/-
esc
set tempo
stop
Difficulty
This is very rough bass tab for Maximum the hormone's Kyokatsu.

I have been taught myself for 1 years, so I'm not pretty sure about this tab.

But The reason I uploaded this tab is I'm Korea, neighboring country of Japan. So I have
been very impressed at MTH's songs for many years, especially album Bu-ikikaesu. But
Nowhere is tabs for Kyokatsu. Therfore, I uploaded this tab and I hope many awesome 
bassists to hear this tab and correct this tab and uplodead their tabs, so it will be chance for
many people to understand Kyokatsu. Thanks.


Title: Kyokatsu
Artist: maximum the hormone
Instructions: bass
Tempo = 150
Electric Bass

Legend
L - tied note
x - dead note
P - popping (bass)
S - slapping (bass)



G |-------|-------|-------|-------|----------------------------|
B |-------|-------|-------|-------|----------------------------|
A |-------|-------|-------|-------|----------------------------|
E |-------|-------|-------|-------|----------------------------|

  S     S  P  S  P  S     S     S  P  S  P  S
-----------3-----3-----------------3-----3----------|
----------------------------------------------------|
--1-----x-----x-----------1-----x-----x-------------|
--------------------2-----------------------2-------|

  S     S  P  S  P  S     S     S  P  S  P  S
-----------3-----3-----------------3-----3----------|
----------------------------------------------------|
--1-----x-----x-----------1-----x-----x-------------|
--------------------2-----------------------2-------|

  S     S  P  S  P  S     S     S  P  S  P  S
-----------3-----3-----------------3-----3----------|
----------------------------------------------------|
--1-----x-----x-----------1-----x-----x-------------|
--------------------2-----------------------2-------|

  S     S  P  S  P  S     S     S     S     S
-----------3-----3----------------------------------|
----------------------------------------------------|
--1-----x-----x-----------1-------------------------|
--------------------2-----------2-----2-----1-------|

  S     S  P  S  P  S     S     S  P  S  P  S
-----------3-----3-----------------3-----3----------|
----------------------------------------------------|
--1-----x-----x-----------1-----x-----x-------------|
--------------------2-----------------------2-------|

  S     S  P  S  P  S     S     S  P  S  P  S
-----------3-----3-----------------3-----3----------|
----------------------------------------------------|
--1-----x-----x-----------1-----x-----x-------------|
--------------------2-----------------------2-------|

  S     S  P  S  P  S     S     S  P  S  P  S
-----------3-----3-----------------3-----3----------|
----------------------------------------------------|
--1-----x-----x-----------1-----x-----x-------------|
--------------------2-----------------------2-------|

  S     S  P  S  P  S     S     S     S     S
-----------3-----3----------------------------------|
----------------------------------------------------|
--1-----x-----x-----------1-------------------------|
--------------------2-----------2-----2-----1-------|

  S     S  P  S  P  S     S     S  P  S  P  S
-----------3-----3-----------------3-----3----------|
----------------------------------------------------|
--1-----x-----x-----------1-----x-----x-------------|
--------------------2-----------------------2-------|

  S     S  P  S  P  S     S     S     S     S
-----------3-----3----------------------------------|
----------------------------------------------------|
--1-----x-----x-----------1-------------------------|
--------------------2-----------2-----2-----1-------|

  S     S  P  S  P  S     S     S  P  S  P  S
-----------3-----3-----------------3-----3----------|
----------------------------------------------------|
--1-----x-----x-----------1-----x-----x-------------|
--------------------2-----------------------2-------|

  S     S  P  S  P  S     S     S     S     S
-----------3-----3----------------------------------|
----------------------------------------------------|
--1-----x-----x-----------1-------------------------|
--------------------2-----------2-----2-----1-------|

  S     S  P  S  P  S     S     S  P  S  P  S
-----------3-----3-----------------3-----3----------|
----------------------------------------------------|
--1-----x-----x-----------1-----x-----x-------------|
--------------------2-----------------------2-------|

  S     S  P  S  P  S     S     S     S     S
-----------3-----3----------------------------------|
----------------------------------------------------|
--1-----x-----x-----------1-------------------------|
--------------------2-----------2-----2-----1-------|

  S     S  P  S  P  S     S     S  P  S  P  S
-----------3-----3-----------------3-----3----------|
----------------------------------------------------|
--1-----x-----x-----------1-----x-----x-------------|
--------------------2-----------------------2-------|

  S     S  P  S  P  S     S     S     S     S
-----------3-----3----------------------------------|
----------------------------------------------------|
--1-----x-----x-----------1-------------------------|
--------------------2-----------2-----2-----1-------|


----------------------------|----------------------------|
----------------------------|----------------------------|
--1--------2--1--------2----|--1--------2--1--------1----|
----------------------------|-----------------1--2-------|


----------------------------|----------------------------|
----------------------------|----------------------------|
--1--------2--1--------2----|--1--------2--1--------1----|
----------------------------|-----------------1--2-------|


----------------------|
----------------------|
--1-----2--1-----2----|
-----1--------1-------|


----------------------------------------------------------------------------|
----------------------------------------------------------------------------|
--1-----------------------2-----------1--------------------------1----------|
--------------1--------------------------------1--------2-------------------|


----------------------|
----------------------|
--1-----2--1-----2----|
-----1--------1-------|


----------------------------------------------------------------------------|
----------------------------------------------------------------------------|
--1-----------------------2-----------1--------------------------1----------|
--------------1--------------------------------1--------2-------------------|


----------------------|
----------------------|
--1-----2--1-----2----|
-----1--------1-------|


----------------------------------------------------------------------------|
----------------------------------------------------------------------------|
--1-----------------------2-----------1--------------------------1----------|
--------------1--------------------------------1--------2-------------------|


----------------------|
----------------------|
--1-----2--1-----2----|
-----1--------1-------|


----------------------------------------------------------------------------|
----------------------------------------------------------------------------|
--1-----------------------2-----------1-------------------------------------|
--------------1--------------------------------1--------2--------2----------|


----------------------------|----------------------------|
----------------------------|----------------------------|
--------2-----------2-------|--------2-----------2-------|
--1--1-----1-----1-----1----|-----1-----1--4--4-----1----|


----------------------------|----------------------------|
----------------------------|----------------------------|
--------2-----------2-------|--------2-------------------|
--1--1-----1-----1-----1----|-----1-----1--2--2--4-------|


----------------------------|----------------------------|
----------------------------|----------------------------|
--------2-----------2-------|--------2-----------2-------|
--1--1-----1-----1-----1----|-----1-----1--4--4-----1----|


----------------------------|----------------------------|-------|-------|
----------------------------|----------------------------|--2----|-------|
--------2-----------2-------|--------2-------------------|-------|-------|
--1--1-----1-----1-----1----|-----1-----1--2-----4-------|-------|--1----|


-------|-------|-------|-------|-------|-------|----------------------------|
-------|-------|--2----|-------|-------|-------|----------------------------|
--1----|-------|-------|-------|--1----|-------|----------------------------|
-------|--2----|-------|--1----|-------|--2----|--4-----4--4--4--4--4--4----|


----------------------------------------------------------------------------|
----------------------------------------------------------------------------|
----------------------------------------------------------------------------|
--5-----------5-----------5-----------4-------------------------------------|


----------------------------------------|
----------------------------------------|
----------------------------------------|
--2--2--2--2--2--2--4--4--4--4--4--4----|


----------------------------------------|
----------------------------------------|
--4--4--4--4--4--4--1--1--1--1--1--1----|
----------------------------------------|


----------------------------------------|
----------------------------------------|
----------------------------------------|
--2--2--2--2--2--2--4--4--4--4--4--4----|


----------------------------------------|
----------------------------------------|
--4--4--4--4--4--4--4--4--4--4--4--4----|
----------------------------------------|


----------------------------------------|
----------------------------------------|
----------------------------------------|
--2--2--2--2--2--2--4--4--4--4--4--4----|


----------------------------------------|
----------------------------------------|
--4--4--4--4--4--4--1--1--1--1--1--1----|
----------------------------------------|


----------------------------------------|
----------------------------------------|
----------------------------------------|
--2--2--2--2--2--2--4--4--4--4--4--4----|


----------------------------------------------------------------------------|
----------------------------------------------------------------------------|
--4-----4-----4-----4-----4-----4-----4-------------------------------------|
----------------------------------------------------------------------------|


----------------------------|----------------------------|
----------------------------|----------------------------|
--1--------2--1--------2----|--1--------2--1--------1----|
----------------------------|-----------------1--2-------|


----------------------------|----------------------------|
----------------------------|----------------------------|
--1--------2--1--------2----|--1--------2--1--------1----|
----------------------------|-----------------1--2-------|


----------------------|
----------------------|
--1-----2--1-----2----|
-----1--------1-------|


----------------------------------------------------------------------------|
----------------------------------------------------------------------------|
--1-----------------------2-----------1--------------------------1----------|
--------------1--------------------------------1--------2-------------------|


----------------------|
----------------------|
--1-----2--1-----2----|
-----1--------1-------|


----------------------------------------------------------------------------|
----------------------------------------------------------------------------|
--1-----------------------2-----------1--------------------------1----------|
--------------1--------------------------------1--------2-------------------|


----------------------|
----------------------|
--1-----2--1-----2----|
-----1--------1-------|


----------------------------------------------------------------------------|
----------------------------------------------------------------------------|
--1-----------------------2-----------1--------------------------1----------|
--------------1--------------------------------1--------2-------------------|


----------------------|
----------------------|
--1-----2--1-----2----|
-----1--------1-------|


----------------------------------------------------------------------------|
----------------------------------------------------------------------------|
--1-----------------------2-----------1--------------------------1----------|
--------------1--------------------------------1--------2-------------------|

  S     S  P  S  P  S     S     S  P  S  P  S
-----------3-----3-----------------3-----3----------|
----------------------------------------------------|
--1-----x-----x-----------1-----x-----x-------------|
--------------------2-----------------------2-------|

  S     S  P  S  P  S     S     S     S     S
-----------3-----3----------------------------------|
----------------------------------------------------|
--1-----x-----x-----------1-------------------------|
--------------------2-----------2-----2-----1-------|

  S     S  P  S  P  S     S     S  P  S  P  S
-----------3-----3-----------------3-----3----------|
----------------------------------------------------|
--1-----x-----x-----------1-----x-----x-------------|
--------------------2-----------------------2-------|

  S     S  P  S  P  S     S     S     S     S
-----------3-----3----------------------------------|
----------------------------------------------------|
--1-----x-----x-----------1-------------------------|
--------------------2-----------2-----2-----1-------|

  S     S  P  S  P  S     S     S  P  S  P  S
-----------3-----3-----------------3-----3----------|
----------------------------------------------------|
--1-----x-----x-----------1-----x-----x-------------|
--------------------2-----------------------2-------|

  S     S  P  S  P  S     S     S     S     S
-----------3-----3----------------------------------|
----------------------------------------------------|
--1-----x-----x-----------1-------------------------|
--------------------2-----------2-----2-----1-------|

  S     S  P  S  P  S     S     S  P  S  P  S
-----------3-----3-----------------3-----3----------|
----------------------------------------------------|
--1-----x-----x-----------1-----x-----x-------------|
--------------------2-----------------------2-------|

  S     S  P  S  P  S     S     S     S     S
-----------3-----3----------------------------------|
----------------------------------------------------|
--1-----x-----x-----------1-------------------------|
--------------------2-----------2-----2-----1-------|


----------------------------|----------------------------|
----------------------------|----------------------------|
--1--------2--1--------2----|--1--------2--1--------1----|
----------------------------|-----------------1--2-------|


----------------------------|----------------------------|
----------------------------|----------------------------|
--1--------2--1--------2----|--1--------2--1--------1----|
----------------------------|-----------------1--2-------|


----------------------|
----------------------|
--1-----2--1-----2----|
-----1--------1-------|


----------------------------------------------------------------------------|
----------------------------------------------------------------------------|
--1-----------------------2-----------1--------------------------1----------|
--------------1--------------------------------1--------2-------------------|


----------------------|
----------------------|
--1-----2--1-----2----|
-----1--------1-------|


----------------------------------------------------------------------------|
----------------------------------------------------------------------------|
--1-----------------------2-----------1--------------------------1----------|
--------------1--------------------------------1--------2-------------------|


----------------------|
----------------------|
--1-----2--1-----2----|
-----1--------1-------|


----------------------------------------------------------------------------|
----------------------------------------------------------------------------|
--1-----------------------2-----------1--------------------------1----------|
--------------1--------------------------------1--------2-------------------|


----------------------|
----------------------|
--1-----2--1-----2----|
-----1--------1-------|


----------------------------------------------------------------------------|
----------------------------------------------------------------------------|
--1-----------------------2-----------1--------------------------1----------|
--------------1--------------------------------1--------2-------------------|


----------------------------|----------------------------|
----------------------------|----------------------------|
--------2-----------2-------|--------2-----------2-------|
--1--1-----1-----1-----1----|-----1-----1--4--4-----1----|


----------------------------|----------------------------|
----------------------------|----------------------------|
--------2-----------2-------|--------2-------------------|
--1--1-----1-----1-----1----|-----1-----1--2--2--4-------|


----------------------------|----------------------------|
----------------------------|----------------------------|
--------2-----------2-------|--------2-----------2-------|
--1--1-----1-----1-----1----|-----1-----1--4--4-----1----|


----------------------------|----------------------------|-------|-------|
----------------------------|----------------------------|--2----|-------|
--------2-----------2-------|--------2-------------------|-------|-------|
--1--1-----1-----1-----1----|-----1-----1--2-----4-------|-------|--1----|


-------|-------|-------|-------|-------|-------|----------------------------|
-------|-------|--2----|-------|-------|-------|----------------------------|
--1----|-------|-------|-------|--1----|-------|----------------------------|
-------|--2----|-------|--1----|-------|--2----|--4-----4--4--4--4--4--4----|


----------------------------------------------------------------------------|
----------------------------------------------------------------------------|
----------------------------------------------------------------------------|
--5-----------5-----------5-----------4-------------------------------------|


----------------------------------------|
----------------------------------------|
----------------------------------------|
--2--2--2--2--2--2--4--4--4--4--4--4----|


----------------------------------------|
----------------------------------------|
--4--4--4--4--4--4--1--1--1--1--1--1----|
----------------------------------------|


----------------------------------------|
----------------------------------------|
----------------------------------------|
--2--2--2--2--2--2--4--4--4--4--4--4----|


----------------------------------------|
----------------------------------------|
--4--4--4--4--4--4--4--4--4--4--4--4----|
----------------------------------------|


----------------------------------------|
----------------------------------------|
----------------------------------------|
--2--2--2--2--2--2--4--4--4--4--4--4----|


----------------------------------------|
----------------------------------------|
--4--4--4--4--4--4--1--1--1--1--1--1----|
----------------------------------------|


----------------------------------------|
----------------------------------------|
----------------------------------------|
--2--2--2--2--2--2--4--4--4--4--4--4----|


----------------------------------------|-------|-------|-------|----------|
----------------------------------------|-------|-------|-------|----------|
--4--4--4--4--4--4--4--4--4--4--4--4----|-------|-------|-------|----------|
----------------------------------------|-------|-------|-------|-----14s--|


----------------------------------------|
----------------------------------------|
----------------------------------------|
--2--2--2--2--2--2--4--4--4--4--4--4----|


----------------------------------------|
----------------------------------------|
--4--4--4--4--4--4--1--1--1--1--1--1----|
----------------------------------------|


----------------------------------------|
----------------------------------------|
----------------------------------------|
--2--2--2--2--2--2--4--4--4--4--4--4----|


----------------------------------------|
----------------------------------------|
--4--4--4--4--4--4--4--4--4--4--4--4----|
----------------------------------------|


----------------------------------------|
----------------------------------------|
----------------------------------------|
--2--2--2--2--2--2--4--4--4--4--4--4----|


----------------------------------------|----------|--6--6--6--6L---|--6L---|
----------------------------------------|----------|----------------|-------|
--4--4--4--4--4--4--4--4--4--4--4--4----|----------|--4--4--4--4L---|--4L---|
----------------------------------------|--2--4----|----------------|-------|


--6L---|--6L---|--6L---|--6L---|--6----|-----------6----||
-------|-------|-------|-------|-------|----------------||
--4L---|--4L---|--4L---|--4L---|--4L---|--4L----4--4----||
-------|-------|-------|-------|-------|----------------||
Suggest correction
Creating personal tab
Creating personal tab
You can edit any tab online and save it as your Personal.

You can edit, replace or remove any tab part or add personal notes – all changes will be seen only by you.

Personal tabs can be accessed anytime from any device, even offline.
Learn more »
Give kudos to tab author, rate the tab!
1 2 3 4 5
comments
print report bad tab
guest
Wanna post a correction for this tab? Suggest correction