Oops, an error
Loading. Please wait.

Maximum The Hormone bass

version 1
version 1

Whole song

Interactive

6,585 views 15 this week
2 commentsread comments
1 2 3 4 5
x 4
add to favorites
×
Save as Personal and add changes to this tab that will be seen only by you. Learn more ›
×
You can save this tab as Personal to edit and correct it or add notes. All changes will be seen only by you. Learn more »
launch autoscroll
font size
0
reset
guitar tuner
edit
Autoscroll
slow
fast
+/-
esc
set tempo
stop
maximum the hormone
Maximum The Hormone
Bass Tabs
by Carl Engman

Video - http://www.youtube.com/watch?v=vMjHR4ukpn0

/ = Slide
h = hammer-on
x = ghost note


Intro:

F|------------------------------|
C|------------------------------|
G|------------------------------|
C|-0-1-0-1~---------------------| The first 4 opening notes.


F|------------------------------|
C|------------------------------|
G|------------------------------|
C|-0-1-0-3-0-1-2--0-1-0-3-0-1-2-|


Intro (pt. 2):

F|----------------------------------------|
C|----------------------------------------|
G|----------------------------------------|
C|-0-/12-0-10-0-10-12--0-/12-0-10-0-10-12-|


Verse:

Ladies and gentlemen, start you tapping!

F|----------19------------17--|-----------|
C|----10h12---------10h12-----|----10h12--|
G|-17------------17-----------|-17--------|
C|----------------------------|-----------|


Verse (pt. 2):

F|----------------------------------------|
C|----------------------------------------|
G|----------------------------------------|
C|-0-10-12-0-10-11-12--0-10-12-0-10-11-12-|


F|-------------------------------------------|
C|-----------x-------------------------------|
G|-------------------------------------------|
C|-0-10-12-x---10-11-12--0-10-12-0-10-11-12--|


F|-------------------------------------------|
C|-----------x-------------------------------|
G|-------------------------------------------|
C|-0-10-12-x---10-11-12--0-10-12-0-10-11-12--|


F|-------------------------------------------|
C|-----------x-------------------------------|
G|-------------------------------------------|
C|-0-10-12-x---10-11-12--0-10-12-0-10-11-12--|


Chorus:

F|---------------------------------|
C|---------------------------------|
G|---------------------------------|
C|-0-00-00-0-00-00-0-00-00-0-00-00-| Repeat


Chorus (pt.2):

F|-----------------------------------|
C|-----------------------------------|
G|---3-5---3-5---6-----3-5---3---6-5-|
C|-0-----0-----0-----0-----0---0-----| Repeat

Variation (the part around 4.22 in the song):

F|-----------------------------------|
C|-----------------------------------|
G|---3-5---3-5---6-----3-5---3---6-5-|
C|-0-----0-----0-----0-----0---0-----|


F|-----------------------------------|
C|-----------------------------------|
G|---3-5---3-5---6-----3-5---5-------|
C|-0-----0-----0-----0-----0---------|


Outro:

F|---------------------|
C|---------------------|
G|---------------------|
C|-0-0-0-0-1-3-5-------|


F|------------------------------------------------|
C|------------------------------------------------|
G|------------------------------------------------|
C|-0303030303030303030303030303030303030303030300-|


With reservation for potential errors, tabbing is hard work!
Thanks for your support & please don't forget to subscribe to the Gentlemen's Bass Club 
channel! ;)

            
            
Suggest correction
Creating personal tab
Creating personal tab
You can edit any tab online and save it as your Personal.

You can edit, replace or remove any tab part or add personal notes – all changes will be seen only by you.

Personal tabs can be accessed anytime from any device, even offline.
Learn more »
comments
print report bad tab
2 comments total.
0 reply
BeRaD 76 Mar 07, 2012 09:30 PM

Hardcore O_O

0 reply
B.C.RichRulz 331 Jul 03, 2013 08:42 PM

thank you carl!

guest
You may want to rate the tab now too:
select rating
Wanna post a correction for this tab? Suggest correction