Oops, an error
Loading. Please wait.

Whats Up People Bass Tab

version 1
version 1

Whole song

22,247 views 18 this week
2 commentsread comments
1 2 3 4 5
x 5
add to favorites
launch autoscroll
font size
0
reset
guitar tuner
Autoscroll
slow
fast
+/-
esc
set tempo
stop
Help us to improve Ultimate-Guitar.com Take our survey!
×
Author
Difficulty
novice
-------------------------------------------------------------------------------
	              Whats Up People!? - Maximum the Hormone
-------------------------------------------------------------------------------

Tabbed By : matosh.lee
e-mail: matosh.lee@gmail.com


this is my first tab. and its to a band i cant understand the words too.
Tuning:C,G,C,F

F|---------------------------------------------------------------------------|
C|---------------------------------------------------------------------------|
G|---------------------------------------------------------------------------|
C|------------000-------------------000---------------------000--------------|

F|---------------------------------------------------------------------------|
C|---------------------------------------------------------------------------|
G|---------------------------------------------------------------------------|
C|-----3342-----3342-----3342-----3342-----3342-----3342-----3342-----3342---|

F|---------------------------------------------------------------------------|
C|---------------------------------------------------------------------------|
G|---------------------------------------------------------------------------|
C|-----3342-----3342-----3342-----3342-----3342-----3342-----3342-----3342---|


F|---------------------------------------------------------------------------|
C|---------------------------------------------------------------------------|
G|---------------------------------------------------------------------------|
C|--00--0000--00--0000--00--0000--03032---00--0000--00--0000--00--0000--03032|

F|---------------------------------------------------------------------------|
C|---------------------------------------------------------------------------|
G|---------------------------------------------------------------------------|
C|--00--0000--00--0000--00--0000--03032---00--0000--00--0000--00--0000--32---|

F|---------------------------------------------------------------------------|
C|---------------------------------------------------------------------------|
G|---------------------------------------------------------------------------|
C|------342------342------342------342------342------342------342------342---|

F|---------------------------------------------------------------------------|
C|---------------------------------------------------------------------------|
G|---------------------------------------------------------------------------|
C|------342------342------342------342------342------342------342------342---|

F|---------------------------------------------------------------------------|
C|---------------------------------------------------------------------------|
G|---------------------------------------------------------------------------|
C|--00--0000--00--0000--00--0000--03032---00--0000--00--0000--00--0000--03032|

F|---------------------------------------------------------------------------|
C|---------------------------------------------------------------------------|
G|---------------------------------------------------------------------------|
C|--00--0000--00--0000--00--0000--03032---00--0000--00--0000--00--0000--32---|

F|---------------------------------------------------------------------------|
C|---------------------------------------------------------------------------|
G|---------------------------------------------------------------------------|
C|-----3342-----3342-----3342-----3342-----3342-----3342-----3342-----3342---|

F|---------------------------------------------------------------------------|
C|---------------------------------------------------------------------------|
G|---------------------------------------------------------------------------|
C|-----3342-----3342-----3342-----3342-----3342-----3342-----3342-----3342---|

F|---------------------------------------------------------------------------|
C|---------------------------------------------------------------------------|
G|---------------------------------------------------------------------------|
C|--0000333355556653---0000333355556653---0000333355556653---0000333355556653|

F|---------------------------------------------------------------------------|
C|---------------------------------------------------------------------------|
G|-----------------33-----------------33-----------------33----------------33|
C|-00003333555566-----00003333555566------00003333555566-----00003333555566--|

F|---------------------------------------------------------------------------|
C|---------------------------------------------------------------------------|
G|---------------------------------------------------------------------------|
C|-003030-03030--356--003030-03030--356--003030-03030--356--003030-03030--356|


F|---------------------------------------------------------------------------|
C|---------------------------------------------------------------------------|
G|---------------------------------------------------------------------------|
C|------342------342------342------342------342------342------342------342---|

F|---------------------------------------------------------------------------|
C|---------------------------------------------------------------------------|
G|---------------------------------------------------------------------------|
C|------342------342------342------342------342------342------342------342---|


F|---------------------------------------------------------------------------|
C|---------------------------------------------------------------------------|
G|---------------------------------------------------------------------------|
C|--00--0000--00--0000--00--0000--03032---00--0000--00--0000--00--0000--03032|

F|---------------------------------------------------------------------------|
C|---------------------------------------------------------------------------|
G|---------------------------------------------------------------------------|
C|--00--0000--00--0000--00--0000--03032---00--0000--00--0000--00--0000--32---|

F|---------------------------------------------------------------------------|
C|---------------------------------------------------------------------------|
G|---------------------------------------------------------------------------|
C|------342------342------342------342------342------342------342------342---|

F|---------------------------------------------------------------------------|
C|---------------------------------------------------------------------------|
G|---------------------------------------------------------------------------|
C|------342------342------342------342------342------342------342------342---|

F|---------------------------------------------------------------------------|
C|---------------------------------------------------------------------------|
G|---------------------------------------------------------------------------|
C|--0000333355556653---0000333355556653---0000333355556653---0000333355556653|

F|---------------------------------------------------------------------------|
C|---------------------------------------------------------------------------|
G|-----------------33-----------------33-----------------33------------------|
C|-00003333555566-----00003333555566------00003333555566---00003333555566-00-|

F|---------------------------------------------------------------------------|
C|---------------------------------------------------------------------------|
G|---------------------------------------------------------------------------|
C|-003030-03030--356--003030-03030--356--003030-03030--356--003030-03030--356|

F|---------------------------------------------------------------------------|
C|---------------------------------------------------------------------------|
G|---------------------------------------------------------------------------|
C|-003030-03030--356--003030-03030--356--003030-03030--356--003030-03030--356|
        P  S   P                               P   S   P
F|------7--7---7-------------------------------7---7---7---------------------|
C|---------------------------------------------------------------------------|
G|---------------------------------------------------------------------------|
C|-0--0----0-----0--030-56-----------------0--0----0------0--030-56----------|
        P  S   P                               P   S   P
F|------7--7---7-------------------------------7---7---7---------------------|
C|---------------------------------------------------------------------------|
G|---------------------------------------------------------------------------|
C|-0--0----0-----0--030-56-----------------0--0----0------0--030-56----------|

F|---------------------------------------------------------------------------|
C|---------------------------------------------------------------------------|
G|---------------------------------------------------------------------------|
C|----------------------------------------0000333355556653---0000333355556653|

F|---------------------------------------------------------------------------|
C|---------------------------------------------------------------------------|
G|---------------------------------------------------------------------------|
C|--0000333355556653---0000333355556653---0000333355556653---0000333355556653|
WHATS UP PEOPLE!?  WHATS UP PEOPLE!?  WHATS UP PEOPLE!?  WHATS UP PEOPLE!? 
F|---------------------------------------------------------------------------|
C|---------------------------------------------------------------------------|
G|---------------------------------------------------------------------------|
C|----0356----0356----0356----0356----0356----0356----0356----0356----0356---|

go crazy and have a seizure playing and scream randomly.  







S slap
P pop
===============================================================================
Suggest correction
comments
print report bad tab
2 comments total.
+1 reply
kerjacklebass&! 52 Jul 02, 2008 01:13 AM

whoever reads this just cuase it only has 2 votes and its 4 stars isnt bad, i might give it five i just dunno but its a very good tab by allmeans use it or atleast look over it, i usualy tab my own songs but i have no idea how japanese metal works so i needed help with the tunign and i found this tab it and it rocks

0 reply
LoloLalaLe 51 Aug 01, 2009 03:36 AM

uuuh... i might have a hard time with the pops and slaps... but thanks

guest
You may want to rate the tab now too:
select rating
Wanna post a correction for this tab? Suggest correction