Oops, an error
Loading. Please wait.

Whats Up People Tab

version 2
version 2

Whole song

82,057 views 51 this week
6 commentsread comments
1 2 3 4 5
x 20
add to favorites
launch autoscroll
font size
0
reset
how to read this tab
guitar tuner
Autoscroll
slow
fast
+/-
esc
set tempo
stop
Help us to improve Ultimate-Guitar.com Take our survey!
×
Author
Difficulty
Tuning
intermediate
C G C F A D
-------------------------------------------------------------------------------
                  What's Up People?! - Maximum The Hormone
-------------------------------------------------------------------------------

Song Name: What's Up People?!
Artist: Maximum The Hormone
Album: Buiikikaesu

Tabbed by: Coolflame 

Email:coolflame@libero.it

Tuning: CGCFAD


[Intro]

D|-------------------------------------------|
A|-------------------------------------------|
F|-------------------------------------------|
C|--3-4-0-3-0-3-4-0-3-0-3-4-0-3-0-3--0-0-0---|
G|-----------------------------------0-0-0---| 
C|-----------------------------------0-0-0---|(x3)

D|-------------------------------------------|
A|-------------------------------------------|
F|-------------------------------------------|
C|--3-4-0-3-0-3-4-0-3-0-3-4-0-3-0-3-4--------|
G|-------------------------------------------|
C|-------------------------------------------|


[Riff 1]

D|--------------------------------------------------------------------------------|
A|--------------------------------------------------------------------------------|
F|--------------------------------------------------------------------------------|  
C|---3-4-3--0-3-4-3---0-3-4-3---0-3-4-3-----0-3-4-3--0-3-4-3---0-3-4-3---0-3-4-3--|     
G|---3-4-3--0-3-4-3---0-3-4-3---0-3-4-3-----0-3-4-3--0-3-4-3---0-3-4-3---0-3-4-3--|
C|---3-4-3--0-3-4-3---0-3-4-3---0-3-4-3-----0-3-4-3--0-3-4-3---0-3-4-3---0-3-4-3--|(x2)


[Riff 2]

D|-----------------------------------------------|
A|-----------------------------------------------|
F|-----------------------------------------------|
C|-0-0-0-0---0--0-0-0-0--0--0-0-0-0--0--3-0-3-2--| 
G|-0-0-0-0---0--0-0-0-0--0--0-0-0-0--0--3-0-3-2--|
C|-0-0-0-0---0--0-0-0-0--0--0-0-0-0--0--3-0-3-2--|(x3)

D|------------------------------------------------|
A|------------------------------------------------|
F|------------------------------------------------|
C|-0-0-0-0---0--0-0-0-0--0--0-0-0-0--0---3-2------| 
G|-0-0-0-0---0--0-0-0-0--0--0-0-0-0--0---3-2------|
C|-0-0-0-0---0--0-0-0-0--0--0-0-0-0--0---3-2------|


[Riff 1]

D|--------------------------------------------------------------------------------|
A|--------------------------------------------------------------------------------|
F|--------------------------------------------------------------------------------|  
C|---3-4-3--0-3-4-3---0-3-4-3---0-3-4-3-----0-3-4-3--0-3-4-3---0-3-4-3---0-3-4-3--|     
G|---3-4-3--0-3-4-3---0-3-4-3---0-3-4-3-----0-3-4-3--0-3-4-3---0-3-4-3---0-3-4-3--|
C|---3-4-3--0-3-4-3---0-3-4-3---0-3-4-3-----0-3-4-3--0-3-4-3---0-3-4-3---0-3-4-3--|(x2)


[Riff 2]

D|-----------------------------------------------|
A|-----------------------------------------------|
F|-----------------------------------------------|
C|-0-0-0-0---0--0-0-0-0--0--0-0-0-0--0--3-0-3-2--| 
G|-0-0-0-0---0--0-0-0-0--0--0-0-0-0--0--3-0-3-2--|
C|-0-0-0-0---0--0-0-0-0--0--0-0-0-0--0--3-0-3-2--|(x3)

D|------------------------------------------------|
A|------------------------------------------------|
F|------------------------------------------------|
C|-0-0-0-0---0--0-0-0-0--0--0-0-0-0--0---3-2------|
G|-0-0-0-0---0--0-0-0-0--0--0-0-0-0--0---3-2------|
C|-0-0-0-0---0--0-0-0-0--0--0-0-0-0--0---3-2------|


[Riff 1]

D|--------------------------------------------------------------------------------|
A|--------------------------------------------------------------------------------|
F|--------------------------------------------------------------------------------|   
C|---3-4-3--0-3-4-3---0-3-4-3---0-3-4-3-----0-3-4-3--0-3-4-3---0-3-4-3---0-3-4-3--|     
G|---3-4-3--0-3-4-3---0-3-4-3---0-3-4-3-----0-3-4-3--0-3-4-3---0-3-4-3---0-3-4-3--|
C|---3-4-3--0-3-4-3---0-3-4-3---0-3-4-3-----0-3-4-3--0-3-4-3---0-3-4-3---0-3-4-3--|(x2)


[Ningen Part]

D|---------------------------------------|
A|---------------------------------------|
F|---------------------------------------|
C|-0-0-0-0-3-3-3-3-5-5-5-5-6-6-5-3-------| 
G|-0-0-0-0-3-3-3-3-5-5-5-5-6-6-5-3-------|
C|-0-0-0-0-3-3-3-3-5-5-5-5-6-6-5-3-------|(x3)

D|---------------------------------------|
A|---------------------------------------|
F|---------------------------------------|
C|-0-0-0-0-3-3-3-3-5-5-5-5-6-6-----------| 
G|-0-0-0-0-3-3-3-3-5-5-5-5-6-6-----------|
C|-0-0-0-0-3-3-3-3-5-5-5-5-6-6-----------|

D|---------------------------------------|
A|---------------------------------------|
F|-7-7-7-7---------------------5-5-------|
C|-7-7-7-7-3-3-3-3-5-5-5-5-6-6-5-5-------|
G|-5-5-5-5-3-3-3-3-5-5-5-5-6-6-3-3-------|
C|---------3-3-3-3-5-5-5-5-6-6-----------|(x3)

D|---------------------------------------|
A|---------------------------------------|
F|-7-7-7-7-------------------------------| 
C|-7-7-7-7-3-3-3-3-5-5-5-5-6-------------|
G|-5-5-5-5-3-3-3-3-5-5-5-5-6-------------|
C|---------3-3-3-3-5-5-5-5-6-------------|


[Interlude]

D|-------------------------------------|
A|-------------------------------------|
F|-------------------------------------|    
C|-0-0-3-0-3-0--0-3-0-3-0----0-3-5-----|
G|-0-0-3-0-3-0--0-3-0-3-0----0-3-5-----|
C|-0-0-3-0-3-0--0-3-0-3-0----0-3-5-----|(x4)


[Riff 1]

D|--------------------------------------------------------------------------------|
A|--------------------------------------------------------------------------------|
F|--------------------------------------------------------------------------------|  
C|---3-4-3--0-3-4-3---0-3-4-3---0-3-4-3-----0-3-4-3--0-3-4-3---0-3-4-3---0-3-4-3--|     
G|---3-4-3--0-3-4-3---0-3-4-3---0-3-4-3-----0-3-4-3--0-3-4-3---0-3-4-3---0-3-4-3--|
C|---3-4-3--0-3-4-3---0-3-4-3---0-3-4-3-----0-3-4-3--0-3-4-3---0-3-4-3---0-3-4-3--|(x2)


[Riff 2]

D|-----------------------------------------------|
A|-----------------------------------------------|
F|-----------------------------------------------|
C|-0-0-0-0---0--0-0-0-0--0--0-0-0-0--0--3-0-3-2--| 
G|-0-0-0-0---0--0-0-0-0--0--0-0-0-0--0--3-0-3-2--|
C|-0-0-0-0---0--0-0-0-0--0--0-0-0-0--0--3-0-3-2--|(x3)

D|------------------------------------------------|
A|------------------------------------------------|
F|------------------------------------------------|
C|-0-0-0-0---0--0-0-0-0--0--0-0-0-0--0---3-2------|  
G|-0-0-0-0---0--0-0-0-0--0--0-0-0-0--0---3-2------|
C|-0-0-0-0---0--0-0-0-0--0--0-0-0-0--0---3-2------|


[Riff 1]

D|--------------------------------------------------------------------------------|
A|--------------------------------------------------------------------------------|
F|--------------------------------------------------------------------------------|  
C|---3-4-3--0-3-4-3---0-3-4-3---0-3-4-3-----0-3-4-3--0-3-4-3---0-3-4-3---0-3-4-3--|    
G|---3-4-3--0-3-4-3---0-3-4-3---0-3-4-3-----0-3-4-3--0-3-4-3---0-3-4-3---0-3-4-3--|
C|---3-4-3--0-3-4-3---0-3-4-3---0-3-4-3-----0-3-4-3--0-3-4-3---0-3-4-3---0-3-4-3--|(x2)


[Ningen Part]

D|---------------------------------------|
A|---------------------------------------|
F|---------------------------------------|
C|-0-0-0-0-3-3-3-3-5-5-5-5-6-6-5-3-------|
G|-0-0-0-0-3-3-3-3-5-5-5-5-6-6-5-3-------|
C|-0-0-0-0-3-3-3-3-5-5-5-5-6-6-5-3-------|(x3)

D|---------------------------------------|
A|---------------------------------------|
F|---------------------------------------|
C|-0-0-0-0-3-3-3-3-5-5-5-5-6-6-----------| 
G|-0-0-0-0-3-3-3-3-5-5-5-5-6-6-----------|
C|-0-0-0-0-3-3-3-3-5-5-5-5-6-6-----------|

D|---------------------------------------|
A|---------------------------------------|
F|-7-7-7-7---------------------5-5-------|  
C|-7-7-7-7-3-3-3-3-5-5-5-5-6-6-5-5-------|
G|-5-5-5-5-3-3-3-3-5-5-5-5-6-6-3-3-------|
C|---------3-3-3-3-5-5-5-5-6-6-----------|(x3)

D|---------------------------------------|
A|---------------------------------------|
F|-7-7-7-7---------------------5-5-7-7---| 
C|-7-7-7-7-3-3-3-3-5-5-5-5-6-6-5-5-7-7---|
G|-5-5-5-5-3-3-3-3-5-5-5-5-6-6-3-3-5-5---|
C|---------3-3-3-3-5-5-5-5-6-6-----------|


[Interlude 2]

D|---------------------------------|
A|---------------------------------|
F|---------------------------------|
C|-0---0-0-3-0--3--0---0-3-0-5-6---|   
G|-0---0-0-3-0--3--0---0-3-0-5-6---|
C|-0---0-0-3-0--3--0---0-3-0-5-6---|(x4)

D|---------------------------------|
A|---------------------------------|
F|---------------------------------|
C|-0---0-3-0--3--0--0-0-3-0-5-6----| 
G|-0---0-3-0--3--0--0-0-3-0-5-6----|
C|-0---0-3-0--3--0--0-0-3-0-5-6----|(x3)

D|--------------------|
A|--------------------|
F|--------------------|
C|-0---0-3-0---0------|   
G|-0---0-3-0---0------|
C|-0---0-3-0---0------|

D|---------------------------------|
A|---------------------------------|
F|---------------------------------|
C|-0---0-3-0--3--0--0-0-3-0-5-6----| 
G|-0---0-3-0--3--0--0-0-3-0-5-6----|
C|-0---0-3-0--3--0--0-0-3-0-5-6----|(x4)


[Ningen Final]

D|---------------------------------------|
A|---------------------------------------|
F|---------------------------------------|
C|-0-0-0-0-3-3-3-3-5-5-5-5-6-6-5-3-------| 
G|-0-0-0-0-3-3-3-3-5-5-5-5-6-6-5-3-------|
C|-0-0-0-0-3-3-3-3-5-5-5-5-6-6-5-3-------|(x7)

D|---------------------------------------|
A|---------------------------------------|
F|---------------------------------------|
C|-0-0-0-0-3-3-3-3-5-5-5-5-6-------------| 
G|-0-0-0-0-3-3-3-3-5-5-5-5-6-------------|
C|-0-0-0-0-3-3-3-3-5-5-5-5-6-------------|


[Final Random Picking]

(it probably goes like this)
D|--------------------------------------|
A|--------------------------------------|
F|--------------------------------------|
C|-0-0-3-0-5-0-3-0-0-0-3-0-5-0-6-0------|  
G|-0-0-3-0-5-0-3-0-0-0-3-0-5-0-6-0------|
C|-0-0-3-0-5-0-3-0-0-0-3-0-5-0-6-0------|(x3)


(after that, more random picking... it ends on)
D|--------------------------------------|
A|--------------------------------------|
F|--------------------------------------|
C|-0------------------------------------|
G|-0------------------------------------|
C|-0------------------------------------|
Suggest correction
comments
print report bad tab
6 comments total. Showing first comments.
0 reply
pnkr0cker 1,847 Mar 30, 2008 02:56 AM

during the ningen part its only the bass.

+1 reply
DuskStray 31 Apr 03, 2008 07:59 AM

Thanks for writing this one. I've played it live a few times and it always pleases em.

0 reply
PlayMadness 10 Jul 01, 2008 11:32 PM

pnkr0cker:

No, it's played on the guitar, but only on the top string.

guest
You may want to rate the tab now too:
select rating
Wanna post a correction for this tab? Suggest correction