Oops, an error
Loading. Please wait.

Zetsubou Billy bass

version 4
version 4
1,824 views 1 this week
no commentswrite comment
1 2 3 4 5
1 last vote to show rating
add to favorites
×
Save as Personal and add changes to this tab that will be seen only by you. Learn more ›
×
You can save this tab as Personal to edit and correct it or add notes. All changes will be seen only by you. Learn more »
launch autoscroll
font size
0
reset
guitar tuner
edit
Autoscroll
slow
fast
+/-
esc
set tempo
stop
Difficulty
intermediate
Zetsubou Billy by Maximum The Hormone
Tabbed by: DarkZack - email: dj_darkzack@hotmail.com
********Requires a 5-string bass for one low note or play one octave up on the E************

intro:
G----------2-----------------------------------|
D-1--2--1--------------------------------------|
A----------------------------------------------|
E----------------------------------------------|
B----------------------------------------------|

Verse
G----------------------------------------------|
D----------------------------------------------|
A--6---4----2-------4--------------------------|
E---------------4------------------------------|
B----------------------------------------------|

G---------------------------------------------------------------------------------|
D------------------------------------------------------------------------00000000-|
A--6666666666666666--4444444444444444--2222222222222222-1111111111111111----------|
E---------------------------------------------------------------------------------|
B---------------------------------------------------------------------------------|

V pt2
G---------------------------------------------------------------------------|
D---------------------------------------------------------------------------|
A--------------------------------------------------2222222-444444444-4r-----|
E-----------------------2-2-2-2--2-2-2-2r-4444444---------------------------|
B--4-4-4-4-----4-4-4-4r-----------------------------------------------------|


Chorus
G---------------------------------------               G----------------|
D---------------------------------------               D----------------|
A-222--4-44--6-66-----2-22-4-44--------- x2            A--2--4--6-66666-|
E-----------------222-------------------               E----------------|
B-------------------------------4444444-               B----------------|

Bridge1/Bass solo
G---------------------------------|
D---------------------------------|
A--6-5555-6-5-67------------------| x24
E---------------------------------|
B---------------------------------|

Bridge 1 Cuts
G---------------------------------|
D---------------------------------|
A--6-5555-6-5-67------------------| x24
E---------------------------------|
B---------------------------------|

Bridge2
G------------------------------------6r-|
D---------------------------------------|
A--------------------2-22---4-44-444----|
E-------2r------4-4---------------------|
B--4r-----------------------------------|

Alternative Chorus
G----------------------------------------------------------------------|
D------------3h4p3-----------------------------------------------------|
A--2222--444-------11111-----6-4-6r--22222--444444-55555-66666--2r---4r|
E----------------------------------------------------------------------|
B----------------------------------------------------------------------|

Order of the song:
Intro
Verse
V pt2
Chorus
Intro
Verse
V pt2
Chorus
Bridge 1/bass solo
Bridge 2
bridge 1 (play 8 times instead of 24)
Bridge 3
(vocal and guitar break)
Chorus (play once not twice)
Alternative Chorus
Intro (outro)

            
            
Suggest correction
Creating personal tab
Creating personal tab
You can edit any tab online and save it as your Personal.

You can edit, replace or remove any tab part or add personal notes – all changes will be seen only by you.

Personal tabs can be accessed anytime from any device, even offline.
Learn more »
Give kudos to tab author, rate the tab!
1 2 3 4 5
comments
print report bad tab
guest
Wanna post a correction for this tab? Suggest correction