Oops, an error
Loading. Please wait.

Babun Ralage intro tab

94 views 1 this week
no commentswrite comment
1 2 3 4 5
2 more votes to show rating
add to favorites
×
Save as Personal and add changes to this tab that will be seen only by you. Learn more ›
×
You can save this tab as Personal to edit and correct it or add notes. All changes will be seen only by you. Learn more »
launch autoscroll
font size
0
reset
how to read this tab
guitar tuner
edit
Autoscroll
slow
fast
+/-
esc
set tempo
stop
Author
Difficulty
---------------------------------------------------------------- 
         Babun Ralage (Mahadana Muththa) - Maxwell Mendis
----------------------------------------------------------------

Tabbed by: laviru93doodle a.k.a Laviru K. (Paris)

You can listen to the song here: http://goo.gl/srgPQB

Chorus Melody (riff):

Version 1 (more accurate to the real song) :
e|-------------------|--------------------|-------------------|--------------|
B|---------7-8-8-8-8-|-8-10-8-7---7-7-7-7-|-7-8-7-------------|---7-8-7------|
G|-7-7-7-9-----------|----------9---------|-------9-7-9-9-9-9-|-9-------9-7--|
D|-------------------|--------------------|-------------------|--------------|
A|-------------------|--------------------|-------------------|--------------|
E|-------------------|--------------------|-------------------|--------------|

Version 2 (easiest way to play it) :
e|-------------------|--------------------|-------------------|--------------|
B|-------------------|--------------------|-------------------|--------------|
G|-----------0-0-0-0-|-0--2-0-------------|---0---------------|-----0--------|
D|-0-0-0-2-4---------|--------4-2-4-4-4-4-|-4---4-2-0-2-2-2-2-|-2-4---4-2-0--|
A|-------------------|--------------------|-------------------|--------------|
E|-------------------|--------------------|-------------------|--------------|

These are the two main lead parts played in the verse:

Babun ralage Valawe Jaramareak vela ana...
e|--------------------|
B|--------------5-----|
G|-----6-----6--------|  (btw please note that this is an A chord)
D|--7-----7-----------|
A|--------------------|
E|--------------------|

élu petiyek potchiekata oluwa uge hirakaragane...
e|--------------5-----|
B|-----7-----7--------|
G|--7-----7-----------|   (btw please note that this is a D chord)
D|--------------------|
A|--------------------|
E|--------------------|

This is the trumpet pre-chorus riff that is played in some part of the song

e|-------------3-----|-------------2------|-------------0-----|-----0--------|
B|--3-2---0----------|--------------------|-------------------|--2-----3-----|
G|-------------------|--4-3---2-----------|--2-1---0----------|--------------|
D|-------------------|--------------------|-------------------|--------------|
A|-------------------|--------------------|-------------------|--------------|
E|-------------------|--------------------|-------------------|--------------|


Try to listen to this song often, in order to know exactly when to play each lead part ;)

This a classic Srilankan Baila song.
The chorus melody is very famous in the country ,and is often played by school's musics band 
during BIG MATCHES (Sport tournament).

Enjoy !!!!

            
            
Suggest correction
Creating personal tab
Creating personal tab
You can edit any tab online and save it as your Personal.

You can edit, replace or remove any tab part or add personal notes – all changes will be seen only by you.

Personal tabs can be accessed anytime from any device, even offline.
Learn more »
Give kudos to tab author, rate the tab!
1 2 3 4 5
comments
print report bad tab
guest
You may want to rate the tab now too:
select rating
Wanna post a correction for this tab? Suggest correction